0
SECTION
2
HEADER
9
$INSUNITS
70
1
9
$ACADVER
1
AC1014
9
$HANDSEED
5
FFFF
0
ENDSEC
0
SECTION
2
TABLES
0
TABLE
2
VPORT
5
8
100
AcDbSymbolTable
0
ENDTAB
0
TABLE
2
LTYPE
5
5
100
AcDbSymbolTable
0
LTYPE
5
14
100
AcDbSymbolTableRecord
100
AcDbLinetypeTableRecord
2
BYBLOCK
70
0
0
LTYPE
5
15
100
AcDbSymbolTableRecord
100
AcDbLinetypeTableRecord
2
BYLAYER
70
0
0
ENDTAB
0
TABLE
2
LAYER
5
2
100
AcDbSymbolTable
70
2
0
LAYER
5
50
100
AcDbSymbolTableRecord
100
AcDbLayerTableRecord
2
0
70
0
6
CONTINUOUS
0
ENDTAB
0
TABLE
2
STYLE
5
3
100
AcDbSymbolTable
70
1
0
STYLE
5
11
100
AcDbSymbolTableRecord
100
AcDbTextStyleTableRecord
2
STANDARD
70
0
0
ENDTAB
0
TABLE
2
VIEW
5
6
100
AcDbSymbolTable
70
0
0
ENDTAB
0
TABLE
2
UCS
5
7
100
AcDbSymbolTable
70
0
0
ENDTAB
0
TABLE
2
APPID
5
9
100
AcDbSymbolTable
70
2
0
APPID
5
12
100
AcDbSymbolTableRecord
100
AcDbRegAppTableRecord
2
ACAD
70
0
0
ENDTAB
0
TABLE
2
DIMSTYLE
5
A
100
AcDbSymbolTable
70
1
0
ENDTAB
0
TABLE
2
BLOCK_RECORD
5
1
100
AcDbSymbolTable
70
1
0
BLOCK_RECORD
5
1F
100
AcDbSymbolTableRecord
100
AcDbBlockTableRecord
2
*MODEL_SPACE
0
BLOCK_RECORD
5
1B
100
AcDbSymbolTableRecord
100
AcDbBlockTableRecord
2
*PAPER_SPACE
0
ENDTAB
0
ENDSEC
0
SECTION
2
BLOCKS
0
BLOCK
5
20
100
AcDbEntity
100
AcDbBlockBegin
2
*MODEL_SPACE
0
ENDBLK
5
21
100
AcDbEntity
100
AcDbBlockEnd
0
BLOCK
5
1C
100
AcDbEntity
100
AcDbBlockBegin
2
*PAPER_SPACE
0
ENDBLK
5
1D
100
AcDbEntity
100
AcDbBlockEnd
0
ENDSEC
0
SECTION
2
ENTITIES
0
ARC
5
100
100
AcDbEntity
8
0
100
AcDbCircle
10
-3.0000000006429528
20
6.1064993789852977
30
-1.8964423114632118e-46
40
0.9531249999999919
210
3.6658472065303183e-32
220
-4.8495547452108685e-33
230
1
100
AcDbArc
50
287.07974758812566
51
352.46409065772065
0
LINE
5
101
100
AcDbEntity
8
0
100
AcDbLine
10
-2.055107273596656
20
5.9814993789853101
30
-3.5244517982286307e-32
11
-2.0551072735966609
21
5.9914993789853117
31
0
0
LINE
5
102
100
AcDbEntity
8
0
100
AcDbLine
10
-2.0551072735966609
20
5.9914993789853117
30
0
11
-2.4375000006429475
21
5.9914993789853117
31
-7.7643789883957699e-31
0
LINE
5
103
100
AcDbEntity
8
0
100
AcDbLine
10
-2.4375000006429475
20
5.9914993789853117
30
-7.7643789883957699e-31
11
-2.4375000006429475
21
5.918999378985311
31
0
0
LINE
5
104
100
AcDbEntity
8
0
100
AcDbLine
10
-2.4375000006429475
20
5.918999378985311
30
0
11
-2.500000000642967
21
5.9189993789853119
31
-1.3455113616356523e-48
0
LINE
5
105
100
AcDbEntity
8
0
100
AcDbLine
10
-2.500000000642967
20
5.9189993789853119
30
-1.3455113616356523e-48
11
-2.500000000642939
21
5.9814993789853119
31
0
0
LINE
5
106
100
AcDbEntity
8
0
100
AcDbLine
10
-2.500000000642939
20
5.9814993789853119
30
0
11
-2.5000000006429675
21
6.231499378985311
31
-1.9410947470989462e-32
0
LINE
5
107
100
AcDbEntity
8
0
100
AcDbLine
10
-2.5000000006429675
20
6.231499378985311
30
-1.9410947470989462e-32
11
-2.500000000642967
21
6.293999378985311
31
-2.1854783949314103e-17
0
LINE
5
108
100
AcDbEntity
8
0
100
AcDbLine
10
-2.500000000642967
20
6.293999378985311
30
-2.1854783949314103e-17
11
-2.4375000006429475
21
6.293999378985311
31
1.3455113616356523e-48
0
LINE
5
109
100
AcDbEntity
8
0
100
AcDbLine
10
-2.4375000006429475
20
6.293999378985311
30
1.3455113616356523e-48
11
-2.4375000006429475
21
6.2214993789853121
31
0
0
LINE
5
110
100
AcDbEntity
8
0
100
AcDbLine
10
-2.4375000006429475
20
6.2214993789853121
30
0
11
-2.0551072735966609
21
6.2214993789853121
31
7.7643789883957699e-31
0
LINE
5
111
100
AcDbEntity
8
0
100
AcDbLine
10
-2.0551072735966609
20
6.2214993789853121
30
7.7643789883957699e-31
11
-2.0551072735966609
21
6.2314993789853119
31
0
0
ARC
5
112
100
AcDbEntity
8
0
100
AcDbCircle
10
-3.0000000006429528
20
6.1064993789852977
30
-1.8964423114632118e-46
40
0.95312499999999034
210
2.0111831928869855e-33
220
-1.5202818973733e-32
230
1
100
AcDbArc
50
7.5359093422809575
51
73.034538126157159
0
LINE
5
113
100
AcDbEntity
8
0
100
AcDbLine
10
-2.7218827127595477
20
7.0181451653548645
30
7.7581730923495038e-47
11
-2.8358888215222953
21
7.0437181019910211
31
2.1854783949314113e-17
0
LINE
5
114
100
AcDbEntity
8
0
100
AcDbLine
10
-2.8358888215222953
20
7.0437181019910211
30
2.1854783949314113e-17
11
-2.8685009230080158
21
6.8983308575825628
31
0
0
ARC
5
115
100
AcDbEntity
8
0
100
AcDbCircle
10
-2.8928947559624554
20
6.9038026866909048
30
-2.1854783949314103e-17
40
0.02500000000000107
210
0
220
-0
230
1
100
AcDbArc
50
76.769475100679003
51
347.35714285714175
0
ARC
5
116
100
AcDbEntity
8
0
100
AcDbCircle
10
-3.0033893598156549
20
7.0127430408910953
30
0
40
0.14375000000000043
210
1.2291305465421352e-16
220
-8.9479042886675212e-17
230
1
100
AcDbArc
50
-36.054112126952703
51
15.000304279535101
0
ARC
5
117
100
AcDbEntity
8
0
100
AcDbCircle
10
-3.0000000006429528
20
6.1064993789852977
30
-1.8964423114632118e-46
40
0.95312499030050291
210
-1.2356745465916569e-32
220
5.3371040023126693e-34
230
1
100
AcDbArc
50
81.829207401421115
51
84.993159088554506
0
ARC
5
118
100
AcDbEntity
8
0
100
AcDbCircle
10
-3.0000000006429572
20
7.012749378985311
30
-2.1854783949314103e-17
40
0.093749999999999459
210
-1.136962780962235e-32
220
-2.1873451926920204e-32
230
1
100
AcDbArc
50
-207.46501378771583
51
27.465013787715964
0
ARC
5
119
100
AcDbEntity
8
0
100
AcDbCircle
10
-3.0000000006429528
20
6.1064993789852977
30
-1.8964423114632118e-46
40
0.95312500000000777
210
-2.0011744186430927e-18
220
2.284211653281395e-17
230
1
100
AcDbArc
50
95.006840911446076
51
98.385078313321088
0
ARC
5
120
100
AcDbEntity
8
0
100
AcDbCircle
10
-3.0000000006429572
20
7.012749378985311
30
-2.1854783949314103e-17
40
0.14375000382352862
210
1.469987968205767e-16
220
-3.8800394637790176e-17
230
1
100
AcDbArc
50
165.21397788177501
51
216.26839784124658
0
ARC
5
121
100
AcDbEntity
8
0
100
AcDbCircle
10
-3.1100863967014072
20
6.9033965387990532
30
1.3405914333297074e-47
40
0.024999999999979872
210
2.9445786758395443e-32
220
-4.3653767580140694e-32
230
1
100
AcDbArc
50
-167.1428571428564
51
103.44481061357651
0
LINE
5
122
100
AcDbEntity
8
0
100
AcDbLine
10
-3.134459594505933
20
6.8978335154501496
30
4.7484105685631561e-34
11
-3.1676152136654188
21
7.0430977743652425
31
-4.8527368677473655e-33
0
LINE
5
123
100
AcDbEntity
8
0
100
AcDbLine
10
-3.1676152136654188
20
7.0430977743652425
30
-4.8527368677473655e-33
11
-3.2553587257618024
21
7.0230708903091728
31
6.0659210846842069e-34
0
LINE
5
124
100
AcDbEntity
8
0
100
AcDbLine
10
-3.2553587257618024
20
7.0230708903091728
30
6.0659210846842069e-34
11
-3.2222031066023171
21
6.8778066313940798
31
4.8527368677473655e-33
0
ARC
5
125
100
AcDbEntity
8
0
100
AcDbCircle
10
-3.2465763044068634
20
6.8722436080451743
30
-7.4079777791531712e-49
40
0.024999999999999047
210
1.9071156668077154e-32
220
5.4924612887415311e-32
230
1
100
AcDbArc
50
-257.73052489932246
51
12.857142857137138
0
ARC
5
126
100
AcDbEntity
8
0
100
AcDbCircle
10
-3.3932071392182364
20
6.9230024155218857
30
0
40
0.14375000000000041
210
8.4831062054408054e-33
220
-1.5805392037751303e-33
230
1
100
AcDbArc
50
-10.554112126952354
51
40.500304279535634
0
ARC
5
127
100
AcDbEntity
8
0
100
AcDbCircle
10
-3.0000000006429528
20
6.1064993789852977
30
-1.8964423114632118e-46
40
0.95312499030050424
210
3.8176415953153813e-33
220
-2.4810844656889135e-33
230
1
100
AcDbArc
50
107.32920740142085
51
110.70744480283885
0
ARC
5
128
100
AcDbEntity
8
0
100
AcDbCircle
10
-3.3932071392182364
20
6.9230024155218857
30
0
40
0.093749999999999695
210
1.3860222663447693e-32
220
-4.2364439248853948e-34
230
1
100
AcDbArc
50
-181.75072807342832
51
53.179299501997768
0
ARC
5
129
100
AcDbEntity
8
0
100
AcDbCircle
10
-3.0000000006429528
20
6.1064993789852977
30
-1.8964423114632118e-46
40
0.9531250000000081
210
1.8664570756043593e-33
220
-4.7744135943961999e-34
230
1
100
AcDbArc
50
120.72112662573089
51
123.88507831332065
0
ARC
5
130
100
AcDbEntity
8
0
100
AcDbCircle
10
-3.3901506821254763
20
6.9244672929273721
30
0
40
0.14375000382352576
210
1.697693264573093e-31
220
-1.8057401774676434e-32
230
1
100
AcDbArc
50
190.71397788177472
51
241.76839784124749
0
ARC
5
131
100
AcDbEntity
8
0
100
AcDbCircle
10
-3.442435432047255
20
6.7783736134625956
30
3.4009352531566833e-47
40
0.024999999999978838
210
-2.2850639166581283e-32
220
-5.0164030622769723e-32
230
1
100
AcDbArc
50
-141.64285714285944
51
128.94481061357453
0
LINE
5
132
100
AcDbEntity
8
0
100
AcDbLine
10
-3.4620393784346617
20
6.7628595783318302
30
-1.2262092385220416e-33
11
-3.5545030278141034
21
6.8796990988008728
31
-4.8527368677473655e-33
0
LINE
5
133
100
AcDbEntity
8
0
100
AcDbLine
10
-3.5545030278141034
20
6.8796990988008728
30
-4.8527368677473655e-33
11
-3.6250772348088423
21
6.823848572330057
31
1.2131842169368414e-32
0
LINE
5
134
100
AcDbEntity
8
0
100
AcDbLine
10
-3.6250772348088423
20
6.823848572330057
30
1.2131842169368414e-32
11
-3.5326135854294014
21
6.7070090518610144
31
4.8527368677473655e-33
0
ARC
5
135
100
AcDbEntity
8
0
100
AcDbCircle
10
-3.5522175318168254
20
6.6914950167302347
30
1.1347675052611904e-47
40
0.024999999999999578
210
-1.529801974612167e-32
220
1.933098361635939e-32
230
1
100
AcDbArc
50
-232.23052489932113
51
38.357142857141476
0
ARC
5
136
100
AcDbEntity
8
0
100
AcDbCircle
10
-3.7064165954289874
20
6.6741829678893048
30
0
40
0.14374999999999979
210
4.1420299943857054e-33
220
1.1056619141885138e-33
230
1
100
AcDbArc
50
14.945887873046701
51
66.000304279535328
0
ARC
5
137
100
AcDbEntity
8
0
100
AcDbCircle
10
-3.0000000006429528
20
6.1064993789852977
30
-1.8964423114632118e-46
40
0.95312499030050446
210
-7.9438550003724561e-34
220
8.569815889408898e-34
230
1
100
AcDbArc
50
132.82920740142058
51
136.42173051712408
0
ARC
5
138
100
AcDbEntity
8
0
100
AcDbCircle
10
-3.7085347816296039
20
6.6715370119197992
30
0
40
0.093749999999999639
210
2.1276009943182887e-32
220
-1.7520753995144368e-32
230
1
100
AcDbArc
50
-156.03644235914345
51
78.893585216283327
0
ARC
5
139
100
AcDbEntity
8
0
100
AcDbCircle
10
-3.0000000006429528
20
6.1064993789852977
30
-1.8964423114632118e-46
40
0.953125000000006
210
-1.1799576205280082e-32
220
-1.9976499894043993e-32
230
1
100
AcDbArc
50
146.43541234001611
51
149.78507831332044
0
ARC
5
140
100
AcDbEntity
8
0
100
AcDbCircle
10
-3.7082529287725148
20
6.6718902635031911
30
0
40
0.14375000382352621
210
1.753077304998171e-31
220
3.8124475211710808e-32
230
1
100
AcDbArc
50
216.61397788177499
51
267.66839784124727
0
ARC
5
141
100
AcDbEntity
8
0
100
AcDbCircle
10
-3.6914721018259451
20
6.5176324854142749
30
5.195686233287884e-47
40
0.024999999999978574
210
-6.7813403568203972e-34
220
2.755332201188072e-32
230
1
100
AcDbArc
50
-115.74285714285962
51
154.84481061357235
0
LINE
5
142
100
AcDbEntity
8
0
100
AcDbLine
10
-3.7023304260070393
20
6.4951136755883274
30
6.1310461926101465e-34
11
-3.8365425325698017
21
6.5598292877077036
31
-2.4263684338736828e-33
0
LINE
5
143
100
AcDbEntity
8
0
100
AcDbLine
10
-3.8365425325698017
20
6.5598292877077036
30
-2.4263684338736828e-33
11
-3.875632499621783
21
6.4787615723342027
31
0
0
LINE
5
144
100
AcDbEntity
8
0
100
AcDbLine
10
-3.875632499621783
20
6.4787615723342027
30
0
11
-3.7414203930590202
21
6.4140459602148265
31
2.4263684338736828e-33
0
ARC
5
145
100
AcDbEntity
8
0
100
AcDbCircle
10
-3.7522787172401237
20
6.3915271503888595
30
-7.4079777791531712e-49
40
0.025000000000000119
210
-2.2205260879765215e-32
220
1.0707134303360559e-32
230
1
100
AcDbArc
50
-206.33052489932473
51
64.257142857140579
0
ARC
5
146
100
AcDbEntity
8
0
100
AcDbCircle
10
-3.8834277505260206
20
6.308599535433931
30
-2.1854783949314103e-17
40
0.14375000000000093
210
-1.1500884188518782e-16
220
-9.9433819239596954e-17
230
1
100
AcDbArc
50
40.845887873047474
51
91.900304279535632
0
ARC
5
147
100
AcDbEntity
8
0
100
AcDbCircle
10
-3.0000000006429528
20
6.1064993789852977
30
-1.8964423114632118e-46
40
0.95312499030050057
210
-2.1367559303437369e-17
220
8.3183175502946773e-18
230
1
100
AcDbArc
50
158.72920740142038
51
162.13601623141085
0
ARC
5
148
100
AcDbEntity
8
0
100
AcDbCircle
10
-3.8835284210577186
20
6.3081589753832255
30
-2.1854783949314103e-17
40
0.093749999999999556
210
-1.4699678291636621e-32
220
-5.5416558470907945e-32
230
1
100
AcDbArc
50
-130.32215664487097
51
104.60787093058542
0
ARC
5
149
100
AcDbEntity
8
0
100
AcDbCircle
10
-3.0000000006429528
20
6.1064993789852977
30
-1.8964423114632118e-46
40
0.95312500000000167
210
-2.2714720181796213e-17
220
3.1318483065420927e-18
230
1
100
AcDbArc
50
172.14969805430121
51
175.28507831332058
0
ARC
5
150
100
AcDbEntity
8
0
100
AcDbCircle
10
-3.8826657209896012
20
6.3119021263499562
30
-2.1854783949314103e-17
40
0.14375000382353006
210
7.1108121389178117e-17
220
1.3437913514845564e-16
230
1
100
AcDbArc
50
242.11397788177493
51
293.16839784124755
0
ARC
5
151
100
AcDbEntity
8
0
100
AcDbCircle
10
-3.8011099082921374
20
6.1798956580645124
30
2.1854783949314103e-17
40
0.024999999999980198
210
0
220
0
230
1
100
AcDbArc
50
-90.242857142857659
51
180.34481061357272
0
LINE
5
152
100
AcDbEntity
8
0
100
AcDbLine
10
-3.8012158743937063
20
6.154895882641835
30
2.1854783949314103e-17
11
-3.9502145359129837
21
6.1555274406071909
31
8.1510814575444029e-34
0
LINE
5
153
100
AcDbEntity
8
0
100
AcDbLine
10
-3.9502145359129837
20
6.1555274406071909
30
8.1510814575444029e-34
11
-3.9505960138786347
21
6.0655282490854585
31
-2.1854783949314103e-17
0
LINE
5
154
100
AcDbEntity
8
0
100
AcDbLine
10
-3.9505960138786347
20
6.0655282490854585
30
-2.1854783949314103e-17
11
-3.8015973523593569
21
6.0648966911201034
31
1.6870843016777951e-33
0
ARC
5
155
100
AcDbEntity
8
0
100
AcDbCircle
10
-3.8017033184609272
20
6.0398969156974047
30
-4.4279503543574639e-48
40
0.024999999999999852
210
-1.3866571033784526e-32
220
5.8775986973667138e-35
230
1
100
AcDbArc
50
-180.83052489932172
51
89.757142857139527
0
ARC
5
156
100
AcDbEntity
8
0
100
AcDbCircle
10
-3.8843752474915454
20
5.9085865566075961
30
0
40
0.14375000000000041
210
1.2257894372064538e-32
220
-2.7364773996219138e-33
230
1
100
AcDbArc
50
66.345887873047161
51
117.40030427953549
0
ARC
5
157
100
AcDbEntity
8
0
100
AcDbCircle
10
-3.0000000006429528
20
6.1064993789852977
30
-1.8964423114632118e-46
40
0.95312499030049747
210
1.5854107021633794e-33
220
-1.8342809403220344e-33
230
1
100
AcDbArc
50
184.2292074014203
51
187.85030194569731
0
ARC
5
158
100
AcDbEntity
8
0
100
AcDbCircle
10
-3.8835284210577186
20
5.9048397825873975
30
0
40
0.093749999999999792
210
2.385501901825314e-32
220
-6.2172665510984675e-33
230
1
100
AcDbArc
50
-104.60787093058673
51
130.32215664487336
0
ARC
5
159
100
AcDbEntity
8
0
100
AcDbCircle
10
-3.0000000006429528
20
6.1064993789852977
30
-1.8964423114632118e-46
40
0.95312499999999889
210
-7.7801219567425588e-33
220
2.4139591997071515e-32
230
1
100
AcDbArc
50
197.86398376858764
51
201.38507831332055
0
ARC
5
160
100
AcDbEntity
8
0
100
AcDbCircle
10
-3.8830228718545809
20
5.9026374859861761
30
0
40
0.14375000382353029
210
1.0247140878092569e-32
220
8.14466118174659e-32
230
1
100
AcDbArc
50
268.21397788177546
51
319.26839784124678
0
ARC
5
161
100
AcDbEntity
8
0
100
AcDbCircle
10
-3.7517086870155802
20
5.8199716338221261
30
-5.7243464657092684e-48
40
0.024999999999978997
210
-5.7840696436555773e-35
220
-2.7561605071450555e-32
230
1
100
AcDbArc
50
-64.142857142861459
51
206.44481061357513
0
LINE
5
162
100
AcDbEntity
8
0
100
AcDbLine
10
-3.7408054670508499
20
5.7974745274659822
30
-6.1942571080230287e-34
11
-3.8748882209335767
21
5.7324913364761283
31
0
0
LINE
5
163
100
AcDbEntity
8
0
100
AcDbLine
10
-3.8748882209335767
20
5.7324913364761283
30
0
11
-3.8356366290605015
21
5.6515017535939247
31
0
0
LINE
5
164
100
AcDbEntity
8
0
100
AcDbLine
10
-3.8356366290605015
20
5.6515017535939247
30
0
11
-3.7015538751777743
21
5.7164849445837786
31
0
0
ARC
5
165
100
AcDbEntity
8
0
100
AcDbCircle
10
-3.6906506552130338
20
5.6939878382276161
30
-6.2799447991457564e-48
40
0.024999999999999696
210
-1.1091929803109846e-32
220
-5.3757024820055562e-33
230
1
100
AcDbArc
50
-154.730524899323
51
115.85714285714094
0
ARC
5
166
100
AcDbEntity
8
0
100
AcDbCircle
10
-3.7071237568524018
20
5.5396968949538206
30
0
40
0.14375000000000199
210
-6.2488381461515703e-33
220
1.8785680695571026e-33
230
1
100
AcDbArc
50
92.445887873046857
51
143.50030427953527
0
ARC
5
167
100
AcDbEntity
8
0
100
AcDbCircle
10
-3.0000000006429528
20
6.1064993789852977
30
-1.8964423114632118e-46
40
0.95312499030049436
210
-6.2397200291731565e-34
220
-3.6504661924882466e-34
230
1
100
AcDbArc
50
210.32920740142035
51
213.56458765997598
0
ARC
5
168
100
AcDbEntity
8
0
100
AcDbCircle
10
-3.7085347816296039
20
5.5414617460510591
30
0
40
0.093749999999999889
210
-1.469271785230844e-32
220
-5.3129141916236523e-32
230
1
100
AcDbArc
50
-78.893585216408795
51
156.03644235924361
0
ARC
5
169
100
AcDbEntity
8
0
100
AcDbCircle
10
-3.0000000006429528
20
6.1064993789852977
30
-1.8964423114632118e-46
40
0.95312499999999656
210
-3.5131792420277055e-33
220
-3.3430155309516355e-33
230
1
100
AcDbArc
50
223.57826948285768
51
226.88507831332072
0
ARC
5
170
100
AcDbEntity
8
0
100
AcDbCircle
10
-3.7092386427904604
20
5.5423454895324573
30
0
40
0.1437500038235317
210
3.3855611516827179e-32
220
1.4871426434982106e-32
230
1
100
AcDbArc
50
293.71397788177546
51
344.76839784124718
0
ARC
5
171
100
AcDbEntity
8
0
100
AcDbCircle
10
-3.5551278252446439
20
5.5242647215924698
30
1.3805776770240002e-48
40
0.02499999999997915
210
-4.2154047163137001e-33
220
3.460726852172789e-32
230
1
100
AcDbArc
50
-38.642857142856791
51
231.94481061357354
0
LINE
5
172
100
AcDbEntity
8
0
100
AcDbLine
10
-3.535601485420051
20
5.5086531216407204
30
6.2258625657293244e-34
11
-3.6286466211325612
21
5.3922761362860516
31
0
0
LINE
5
173
100
AcDbEntity
8
0
100
AcDbLine
10
-3.6286466211325612
20
5.3922761362860516
30
0
11
-3.558351797763954
21
5.3360743764596918
31
2.4263684338736828e-33
0
LINE
5
174
100
AcDbEntity
8
0
100
AcDbLine
10
-3.558351797763954
20
5.3360743764596918
30
2.4263684338736828e-33
11
-3.4653066620514434
21
5.4524513618143597
31
0
0
ARC
5
175
100
AcDbEntity
8
0
100
AcDbCircle
10
-3.4457803222268351
20
5.4368397618625952
30
5.6233285869026353e-48
40
0.025000000000000359
210
1.9254457637116932e-32
220
-1.5394226087370798e-32
230
1
100
AcDbArc
50
-129.23052489931985
51
141.35714285713846
0
ARC
5
176
100
AcDbEntity
8
0
100
AcDbCircle
10
-3.3942247381377402
20
5.2904871739006092
30
-2.1854783949314103e-17
40
0.14375000000000021
210
7.1248491091829579e-17
220
-1.343047677392083e-16
230
1
100
AcDbArc
50
117.94588787304684
51
169.00030427953493
0
ARC
5
177
100
AcDbEntity
8
0
100
AcDbCircle
10
-3.0000000006429528
20
6.1064993789852977
30
-1.8964423114632118e-46
40
0.95312499030049136
210
-1.2878683242350411e-17
220
-1.8971202265451342e-17
230
1
100
AcDbArc
50
235.82920740142038
51
239.27887337426975
0
ARC
5
178
100
AcDbEntity
8
0
100
AcDbCircle
10
-3.3932071392182364
20
5.2899963424490908
30
-2.1854783949314103e-17
40
0.093750000000000056
210
1.9734215805630777e-32
220
1.4774202593216988e-32
230
1
100
AcDbArc
50
-53.17929950224638
51
181.75072807365856
0
ARC
5
179
100
AcDbEntity
8
0
100
AcDbCircle
10
-3.0000000006429528
20
6.1064993789852977
30
-1.8964423114632118e-46
40
0.95312499999999356
210
-8.1078270801839763e-18
220
-2.1448312912449198e-17
230
1
100
AcDbArc
50
249.29255519713982
51
252.78507831332061
0
ARC
5
180
100
AcDbEntity
8
0
100
AcDbCircle
10
-3.3915777104947553
20
5.2892136519306643
30
-2.1854783949314103e-17
40
0.1437500038235287
210
-1.1580319874433025e-16
220
9.8507543118923142e-17
230
1
100
AcDbArc
50
-40.386022118225114
51
10.668397841246884
0
ARC
5
181
100
AcDbEntity
8
0
100
AcDbCircle
10
-3.2450484139790268
20
5.3402648371915866
30
4.8825308089873176e-48
40
0.024999999999979754
210
1.2049614543286834e-32
220
-2.5953561008789076e-33
230
1
100
AcDbArc
50
-12.742857142857941
51
257.84481061357792
0
LINE
5
182
100
AcDbEntity
8
0
100
AcDbLine
10
-3.2206641683170858
20
5.334750441168711
30
-3.0813258251582925e-34
11
-3.2535299686134538
21
5.1894203370234262
31
0
0
LINE
5
183
100
AcDbEntity
8
0
100
AcDbLine
10
-3.2535299686134538
20
5.1894203370234262
30
0
11
-3.1657466842303754
21
5.1695685113410521
31
-6.0659210846842069e-34
0
LINE
5
184
100
AcDbEntity
8
0
100
AcDbLine
10
-3.1657466842303754
20
5.1695685113410521
30
-6.0659210846842069e-34
11
-3.1328808839340088
21
5.3148986154863369
31
0
0
ARC
5
185
100
AcDbEntity
8
0
100
AcDbCircle
10
-3.1084966382720483
20
5.3093842194634568
30
2.1854783949314103e-17
40
0.025000000000000584
210
5.9115442003101723e-33
220
-1.0114292885369481e-31
230
1
100
AcDbArc
50
-103.33052489932206
51
167.25714285714196
0
ARC
5
186
100
AcDbEntity
8
0
100
AcDbCircle
10
-2.9981923394020882
20
5.2002511818224875
30
-2.1854783949314103e-17
40
0.14375000000000174
210
2.455133942705348e-16
220
-1.7938686048632381e-16
230
1
100
AcDbArc
50
143.84588787304665
51
194.90030427953474
0
ARC
5
187
100
AcDbEntity
8
0
100
AcDbCircle
10
-3.0000000006429528
20
6.1064993789852977
30
-1.8964423114632118e-46
40
0.95312499030048869
210
-3.2984646163215042e-18
220
-2.269112444609877e-17
230
1
100
AcDbArc
50
261.72920740142041
51
264.99315908855431
0
ARC
5
188
100
AcDbEntity
8
0
100
AcDbCircle
10
-3.0000000006429572
20
5.200249378985311
30
-2.1854783949314103e-17
40
0.093749999999999695
210
-3.1557056439162662e-48
220
-6.0711024893240762e-48
230
1
100
AcDbArc
50
-27.465013787724946
51
207.46501378772541
0
ARC
5
189
100
AcDbEntity
8
0
100
AcDbCircle
10
-3.0000000006429528
20
6.1064993789852977
30
-1.8964423114632118e-46
40
0.95312499999999234
210
2.0011744186428172e-18
220
-2.2842116532814338e-17
230
1
100
AcDbArc
50
275.00684091144524
51
278.28507831332058
0
ARC
5
190
100
AcDbEntity
8
0
100
AcDbCircle
10
-3.0015817044745527
20
5.2002507592826319
30
-2.1854783949314103e-17
40
0.14375000382352743
210
-1.4693085349929399e-16
220
3.9056896711270124e-17
230
1
100
AcDbArc
50
-14.886022118225885
51
36.16839784124727
0
ARC
5
191
100
AcDbEntity
8
0
100
AcDbCircle
10
-2.8913046194733609
20
5.309411296005293
30
2.9295184853923908e-48
40
0.024999999999979729
210
1.1379850195386529e-32
220
-4.7972537481824855e-32
230
1
100
AcDbArc
50
12.757142857141281
51
283.34481061357394
0
LINE
5
192
100
AcDbEntity
8
0
100
AcDbLine
10
-2.8669217494888777
20
5.3149317716477329
30
-1.2642183082538879e-35
11
-2.8340197146599109
21
5.1696098665400942
31
0
0
LINE
5
193
100
AcDbEntity
8
0
100
AcDbLine
10
-2.8340197146599109
20
5.1696098665400942
30
0
11
-2.7200648420249842
21
5.1954101558054173
31
-1.4680372257875681e-32
0
ENDSEC
0
SECTION
2
OBJECTS
0
DICTIONARY
5
C
100
AcDbDictionary
3
ACAD_GROUP
350
D
3
ACAD_MLINESTYLE
350
17
0
DICTIONARY
5
D
100
AcDbDictionary
0
DICTIONARY
5
1A
330
C
100
AcDbDictionary
0
DICTIONARY
5
17
100
AcDbDictionary
0
ENDSEC
0
EOF
