0
SECTION
2
HEADER
9
$INSUNITS
70
1
9
$ACADVER
1
AC1014
9
$HANDSEED
5
FFFF
0
ENDSEC
0
SECTION
2
TABLES
0
TABLE
2
VPORT
5
8
100
AcDbSymbolTable
0
ENDTAB
0
TABLE
2
LTYPE
5
5
100
AcDbSymbolTable
0
LTYPE
5
14
100
AcDbSymbolTableRecord
100
AcDbLinetypeTableRecord
2
BYBLOCK
70
0
0
LTYPE
5
15
100
AcDbSymbolTableRecord
100
AcDbLinetypeTableRecord
2
BYLAYER
70
0
0
ENDTAB
0
TABLE
2
LAYER
5
2
100
AcDbSymbolTable
70
2
0
LAYER
5
50
100
AcDbSymbolTableRecord
100
AcDbLayerTableRecord
2
0
70
0
6
CONTINUOUS
0
ENDTAB
0
TABLE
2
STYLE
5
3
100
AcDbSymbolTable
70
1
0
STYLE
5
11
100
AcDbSymbolTableRecord
100
AcDbTextStyleTableRecord
2
STANDARD
70
0
0
ENDTAB
0
TABLE
2
VIEW
5
6
100
AcDbSymbolTable
70
0
0
ENDTAB
0
TABLE
2
UCS
5
7
100
AcDbSymbolTable
70
0
0
ENDTAB
0
TABLE
2
APPID
5
9
100
AcDbSymbolTable
70
2
0
APPID
5
12
100
AcDbSymbolTableRecord
100
AcDbRegAppTableRecord
2
ACAD
70
0
0
ENDTAB
0
TABLE
2
DIMSTYLE
5
A
100
AcDbSymbolTable
70
1
0
ENDTAB
0
TABLE
2
BLOCK_RECORD
5
1
100
AcDbSymbolTable
70
1
0
BLOCK_RECORD
5
1F
100
AcDbSymbolTableRecord
100
AcDbBlockTableRecord
2
*MODEL_SPACE
0
BLOCK_RECORD
5
1B
100
AcDbSymbolTableRecord
100
AcDbBlockTableRecord
2
*PAPER_SPACE
0
ENDTAB
0
ENDSEC
0
SECTION
2
BLOCKS
0
BLOCK
5
20
100
AcDbEntity
100
AcDbBlockBegin
2
*MODEL_SPACE
0
ENDBLK
5
21
100
AcDbEntity
100
AcDbBlockEnd
0
BLOCK
5
1C
100
AcDbEntity
100
AcDbBlockBegin
2
*PAPER_SPACE
0
ENDBLK
5
1D
100
AcDbEntity
100
AcDbBlockEnd
0
ENDSEC
0
SECTION
2
ENTITIES
0
SPLINE
5
100
100
AcDbEntity
8
0
100
AcDbSpline
70
0
71
3
72
10
73
6
74
0
42
0.000000001
43
0.0000000001
44
0.0000000001
40
0
40
0
40
0
40
0
40
0.010357391711203126
40
0.010357391711203126
40
0.023150780318000039
40
0.023150780318000039
40
0.023150780318000039
40
0.023150780318000039
10
-13.529419788577865
20
11.916467939376135
30
0
10
-13.529241239976976
20
11.91781539908915
30
0
10
-13.52908260201991
20
11.919164636344815
30
0
10
-13.528768795391203
20
11.92218663838846
30
0
10
-13.52873127538529
20
11.922605001001243
30
0
10
-13.528581822501895
20
11.924480957248015
30
0
0
SPLINE
5
101
100
AcDbEntity
8
0
100
AcDbSpline
70
0
71
3
72
16
73
12
74
0
42
0.000000001
43
0.0000000001
44
0.0000000001
40
0
40
0
40
0
40
0
40
0.01855828039630664
40
0.01855828039630664
40
0.035602261516149952
40
0.035602261516149952
40
0.052837090160479439
40
0.052837090160479439
40
0.064065865881970011
40
0.064065865881970011
40
0.072855973394435058
40
0.072855973394435058
40
0.072855973394435058
40
0.072855973394435058
10
-13.528581822501982
20
11.924480957248029
30
0
10
-13.528357742425426
20
11.926906096748883
30
0
10
-13.527686354799799
20
11.929244954267572
30
0
10
-13.525498250412113
20
11.933358587613533
30
0
10
-13.524087505511192
20
11.93509943248948
30
0
10
-13.520648691370209
20
11.937972703437003
30
0
10
-13.518655859021145
20
11.93906261129821
30
0
10
-13.515109246154848
20
11.940195120404113
30
0
10
-13.513661811934391
20
11.940464915313649
30
0
10
-13.511047338761344
20
11.940630539486847
30
0
10
-13.509490118735576
20
11.940630310469517
30
0
10
-13.507595085862304
20
11.940270178970698
30
0
0
SPLINE
5
102
100
AcDbEntity
8
0
100
AcDbSpline
70
0
71
3
72
14
73
10
74
0
42
0.000000001
43
0.0000000001
44
0.0000000001
40
0
40
0
40
0
40
0
40
1.6016534576297119
40
1.6016534576297119
40
3.2201238524836127
40
3.2201238524836127
40
4.0948222154763902
40
4.0948222154763902
40
5.2271875194729036
40
5.2271875194729036
40
5.2271875194729036
40
5.2271875194729036
10
-13.507595085862306
20
11.940270178970689
30
0
10
-13.301100096811014
20
11.901027756552407
30
0
10
-13.10490811145243
20
11.8228485350249
30
0
10
-12.749945704506697
20
11.594646952580121
30
0
10
-12.59535811546519
20
11.44620637899351
30
0
10
-12.407635007437859
20
11.178826838606406
30
0
10
-12.351818775263393
20
11.078371166579258
30
0
10
-12.248937207662168
20
10.836282209938084
30
0
10
-12.22041856734832
20
10.717219814842567
30
0
10
-12.205372351016425
20
10.638045352570243
30
0
0
SPLINE
5
103
100
AcDbEntity
8
0
100
AcDbSpline
70
0
71
3
72
16
73
12
74
0
42
0.000000001
43
0.0000000001
44
0.0000000001
40
0
40
0
40
0
40
0
40
0.01863037689368735
40
0.01863037689368735
40
0.035674943685674497
40
0.035674943685674497
40
0.052893479396685587
40
0.052893479396685587
40
0.064401086789509843
40
0.064401086789509843
40
0.081504038096352066
40
0.081504038096352066
40
0.081504038096352066
40
0.081504038096352066
10
-12.205372350998868
20
10.638045352589469
30
0
10
-12.204915900931354
20
10.635643406993422
30
0
10
-12.20491449773751
20
10.633200952487435
30
0
10
-12.205885089709083
20
10.628634277935003
30
0
10
-12.20676061842145
20
10.626572182402938
30
0
10
-12.209272203716635
20
10.622863921690691
30
0
10
-12.210885347803988
20
10.621268035204224
30
0
10
-12.21400972156203
20
10.619181797685236
30
0
10
-12.215361346951088
20
10.618510825848388
30
0
10
-12.218894801494134
20
10.617274090185234
30
0
10
-12.220101730357971
20
10.617143435587263
30
0
10
-12.221422913269947
20
10.617037380413009
30
0
0
ARC
5
104
100
AcDbEntity
8
0
100
AcDbCircle
10
-12.208562338981274
20
10.457821183814376
30
0
40
0.15973475398412534
210
0
220
0
230
1
100
AcDbArc
50
94.617999627205094
51
97.387529569012827
0
SPLINE
5
105
100
AcDbEntity
8
0
100
AcDbSpline
70
0
71
3
72
14
73
10
74
0
42
0.000000001
43
0.0000000001
44
0.0000000001
40
0
40
0
40
0
40
0
40
0.018571995360672645
40
0.018571995360672645
40
0.035771615753743317
40
0.035771615753743317
40
0.051892000423829493
40
0.051892000423829493
40
0.068838935682718136
40
0.068838935682718136
40
0.068838935682718136
40
0.068838935682718136
10
-12.229100992930723
20
10.616229993250862
30
0
10
-12.231518152150812
20
10.615917543169934
30
0
10
-12.233954017209193
20
10.616063132718557
30
0
10
-12.238469297249061
20
10.617302154660733
30
0
10
-12.24049641286528
20
10.618308337377538
30
0
10
-12.243945507330098
20
10.620971912566455
30
0
10
-12.245356566573493
20
10.622552860703429
30
0
10
-12.247614424291671
20
10.626245715080021
30
0
10
-12.248397892506096
20
10.628328389541883
30
0
10
-12.248813883714234
20
10.630511909364888
30
0
0
SPLINE
5
106
100
AcDbEntity
8
0
100
AcDbSpline
70
0
71
3
72
14
73
10
74
0
42
0.000000001
43
0.0000000001
44
0.0000000001
40
0
40
0
40
0
40
0
40
1.557562470506636
40
1.557562470506636
40
3.1327873876576131
40
3.1327873876576131
40
3.9823972475922549
40
3.9823972475922549
40
4.8494512289857932
40
4.8494512289857932
40
4.8494512289857932
40
4.8494512289857932
10
-12.24881388371228
20
10.630511909365255
30
0
10
-12.287065116332956
20
10.831305466302064
30
0
10
-12.363183903932528
20
11.022069548184071
30
0
10
-12.585302461493278
20
11.36734097770745
30
0
10
-12.729831694237792
20
11.517767365893977
30
0
10
-12.989935509404651
20
11.700276284885103
30
0
10
-13.087514427000048
20
11.75448681901117
30
0
10
-13.294567204014884
20
11.842508172661011
30
0
10
-13.403467625692167
20
11.87555508499794
30
0
10
-13.515128596241416
20
11.896826735975061
30
0
0
SPLINE
5
107
100
AcDbEntity
8
0
100
AcDbSpline
70
0
71
3
72
14
73
10
74
0
42
0.000000001
43
0.0000000001
44
0.0000000001
40
0
40
0
40
0
40
0
40
0.018576437568294215
40
0.018576437568294215
40
0.035772210351551592
40
0.035772210351551592
40
0.051805709072962274
40
0.051805709072962274
40
0.068654505831309942
40
0.068654505831309942
40
0.068654505831309942
40
0.068654505831309942
10
-13.515128789822029
20
11.896826772851687
30
0
10
-13.517523579176309
20
11.897282963307394
30
0
10
-13.51979341536706
20
11.898180293801419
30
0
10
-13.523697878737016
20
11.900764601934757
30
0
10
-13.525310125357265
20
11.902351925456031
30
0
10
-13.527750810259011
20
11.90594782901387
30
0
10
-13.528596158388728
20
11.90787836805662
30
0
10
-13.52959318258798
20
11.912065409767651
30
0
10
-13.52969463809425
20
11.914275296823249
30
0
10
-13.529419534220361
20
11.916467907514408
30
0
0
SPLINE
5
108
100
AcDbEntity
8
0
100
AcDbSpline
70
0
71
3
72
14
73
10
74
0
42
0.000000001
43
0.0000000001
44
0.0000000001
40
0
40
0
40
0
40
0
40
0.018585441056863411
40
0.018585441056863411
40
0.035785522365450559
40
0.035785522365450559
40
0.051900680284245895
40
0.051900680284245895
40
0.068844319271424259
40
0.068844319271424259
40
0.068844319271424259
40
0.068844319271424259
10
-15.377452721837622
20
10.630510081837603
30
0
10
-15.377909330354184
20
10.628114169322238
30
0
10
-15.378807278212639
20
10.625843267223816
30
0
10
-15.381392985999835
20
10.621937660121768
30
0
10
-15.382980875858893
20
10.620325193922952
30
0
10
-15.386586462556291
20
10.617878795874129
30
0
10
-15.388527816088319
20
10.617031262612821
30
0
10
-15.392739363959581
20
10.616037267570514
30
0
10
-15.394962029741668
20
10.615941955819272
30
0
10
-15.397166040070864
20
10.616226836303881
30
0
0
ARC
5
109
100
AcDbEntity
8
0
100
AcDbCircle
10
-15.41772893497062
20
10.457585751048402
30
0
40
0.159968204896143
210
0
220
-0
230
1
100
AcDbArc
50
82.614557213418067
51
85.50943185492649
0
SPLINE
5
110
100
AcDbEntity
8
0
100
AcDbSpline
70
0
71
3
72
16
73
12
74
0
42
0.000000001
43
0.0000000001
44
0.0000000001
40
0
40
0
40
0
40
0
40
0.018535650470824033
40
0.018535650470824033
40
0.035582786061709476
40
0.035582786061709476
40
0.052825429044308037
40
0.052825429044308037
40
0.063936601904180393
40
0.063936601904180393
40
0.07267353181962663
40
0.07267353181962663
40
0.07267353181962663
40
0.07267353181962663
10
-15.405204226606276
20
10.617062892941464
30
0
10
-15.407625182763793
20
10.617299594935494
30
0
10
-15.409957677141074
20
10.617982797820584
30
0
10
-15.414057819790939
20
10.620190868287175
30
0
10
-15.415791804719584
20
10.621611001228665
30
0
10
-15.418648254284564
20
10.625065852973849
30
0
10
-15.419728223247958
20
10.627065263618771
30
0
10
-15.420837781899277
20
10.630604284308033
30
0
10
-15.421099103972814
20
10.632037561198812
30
0
10
-15.421256520968692
20
10.634630260903853
30
0
10
-15.421252250326184
20
10.636169717544172
30
0
10
-15.420896791975457
20
10.638040697497965
30
0
0
SPLINE
5
111
100
AcDbEntity
8
0
100
AcDbSpline
70
0
71
3
72
14
73
10
74
0
42
0.000000001
43
0.0000000001
44
0.0000000001
40
0
40
0
40
0
40
0
40
1.6016578700279576
40
1.6016578700279576
40
3.2201275403022431
40
3.2201275403022431
40
4.0948236077642397
40
4.0948236077642397
40
4.9876311229600496
40
4.9876311229600496
40
4.9876311229600496
40
4.9876311229600496
10
-15.420896791989954
20
10.638040697500703
30
0
10
-15.381654241000085
20
10.844536251536727
30
0
10
-15.303474829978493
20
11.040728705914526
30
0
10
-15.075272760945383
20
11.395691351854079
30
0
10
-14.926832199651116
20
11.550278708541381
30
0
10
-14.659452920542792
20
11.738001469434989
30
0
10
-14.5589975223415
20
11.793817550709276
30
0
10
-14.345804010237028
20
11.884419469334945
30
0
10
-14.233659604208139
20
11.918412072975425
30
0
10
-14.118673038787525
20
11.94026414092793
30
0
0
SPLINE
5
112
100
AcDbEntity
8
0
100
AcDbSpline
70
0
71
3
72
16
73
12
74
0
42
0.000000001
43
0.0000000001
44
0.0000000001
40
0
40
0
40
0
40
0
40
0.018628367676675268
40
0.018628367676675268
40
0.035675391688908487
40
0.035675391688908487
40
0.052896587123872518
40
0.052896587123872518
40
0.064370344877246133
40
0.064370344877246133
40
0.073293834493648055
40
0.073293834493648055
40
0.073293834493648055
40
0.073293834493648055
10
-14.118673038787565
20
11.940264140927601
30
0
10
-14.116271351686505
20
11.940720538895837
30
0
10
-14.113829152621973
20
11.940721919397481
30
0
10
-14.109262370076209
20
11.939751509797388
30
0
10
-14.107199899669997
20
11.938875931757272
30
0
10
-14.103490938471275
20
11.936364175240433
30
0
10
-14.101894676800924
20
11.934750858283868
30
0
10
-14.099810616404667
20
11.931629937154854
30
0
10
-14.099141090829111
20
11.930282573284716
30
0
10
-14.098257590527114
20
11.927764123117496
30
0
10
-14.097827136854251
20
11.926229695759313
30
0
10
-14.097667677288282
20
11.924259729630036
30
0
0
SPLINE
5
113
100
AcDbEntity
8
0
100
AcDbSpline
70
0
71
3
72
10
73
6
74
0
42
0.000000001
43
0.0000000001
44
0.0000000001
40
0
40
0
40
0
40
0
40
0.010069152105790751
40
0.010069152105790751
40
0.01989999824903263
40
0.01989999824903263
40
0.01989999824903263
40
0.01989999824903263
10
-14.097667669191798
20
11.924259730295352
30
0
10
-14.097562713135794
20
11.922942494038507
30
0
10
-14.097439257101323
20
11.921629326770411
30
0
10
-14.09716323716704
20
11.919031811758542
30
0
10
-14.096884630221464
20
11.916757461815909
30
0
10
-14.096852322372326
20
11.916503677082387
30
0
0
SPLINE
5
114
100
AcDbEntity
8
0
100
AcDbSpline
70
0
71
3
72
14
73
10
74
0
42
0.000000001
43
0.0000000001
44
0.0000000001
40
0
40
0
40
0
40
0
40
0.018563148886339989
40
0.018563148886339989
40
0.035760843103924501
40
0.035760843103924501
40
0.05184480857947036
40
0.05184480857947036
40
0.068753123041904007
40
0.068753123041904007
40
0.068753123041904007
40
0.068753123041904007
10
-14.096852250845489
20
11.916503686196435
30
0
10
-14.09654410745385
20
11.914087144529683
30
0
10
-14.096693867526945
20
11.91165266418429
30
0
10
-14.097940120144989
20
11.907140806298429
30
0
10
-14.098949648853683
20
11.905115596322522
30
0
10
-14.101615982784201
20
11.90167490358222
30
0
10
-14.103195117549118
20
11.900269059482246
30
0
10
-14.106881541096142
20
11.898019419934942
30
0
10
-14.108959774237745
20
11.897238569889211
30
0
10
-14.11113831896766
20
11.896823547124837
30
0
0
SPLINE
5
115
100
AcDbEntity
8
0
100
AcDbSpline
70
0
71
3
72
14
73
10
74
0
42
0.000000001
43
0.0000000001
44
0.0000000001
40
0
40
0
40
0
40
0
40
1.5575709676664335
40
1.5575709676664335
40
3.1327997605094389
40
3.1327997605094389
40
3.9824013900268134
40
3.9824013900268134
40
4.8494470683448858
40
4.8494470683448858
40
4.8494470683448858
40
4.8494470683448858
10
-14.11113831896767
20
11.896823547124898
30
0
10
-14.311932903041965
20
11.858571747425703
30
0
10
-14.502697916842239
20
11.782452207771758
30
0
10
-14.847970202307001
20
11.560332004018882
30
0
10
-14.998396614668899
20
11.415802098253371
30
0
10
-15.180904457045516
20
11.155698239122014
30
0
10
-15.235114270921347
20
11.05812018021903
30
0
10
-15.323134572926483
20
10.851069320637233
30
0
10
-15.356181162011941
20
10.742169956164538
30
0
10
-15.37745272189558
20
10.630510081848781
30
0
0
SPLINE
5
116
100
AcDbEntity
8
0
100
AcDbSpline
70
0
71
3
72
14
73
10
74
0
42
0.000000001
43
0.0000000001
44
0.0000000001
40
0
40
0
40
0
40
0
40
0.018575237934553582
40
0.018575237934553582
40
0.035772477834469019
40
0.035772477834469019
40
0.051807287215519124
40
0.051807287215519124
40
0.068656723103753856
40
0.068656723103753856
40
0.068656723103753856
40
0.068656723103753856
10
-14.111135610720227
20
8.7681836287314621
30
0
10
-14.10874097769983
20
8.7677274589030212
30
0
10
-14.106471282794631
20
8.7668301644410942
30
0
10
-14.10256671991721
20
8.7642459351199165
30
0
10
-14.100954266840589
20
8.762658501109037
30
0
10
-14.09851327635949
20
8.7590623650260735
30
0
10
-14.097667802369985
20
8.7571316758340352
30
0
10
-14.096670760424033
20
8.7529443800285645
30
0
10
-14.096569393360499
20
8.7507344175825921
30
0
10
-14.096844737867944
20
8.7485417550570936
30
0
0
SPLINE
5
117
100
AcDbEntity
8
0
100
AcDbSpline
70
0
71
3
72
10
73
6
74
0
42
0.000000001
43
0.0000000001
44
0.0000000001
40
0
40
0
40
0
40
0
40
0.010359129363232085
40
0.010359129363232085
40
0.022086044631257334
40
0.022086044631257334
40
0.022086044631257334
40
0.022086044631257334
10
-14.096844490223765
20
8.7485417240090602
30
0
10
-14.097023087739251
20
8.7471940407461464
30
0
10
-14.097181765670019
20
8.7458445738353756
30
0
10
-14.097481159449728
20
8.7429615595003121
30
0
10
-14.097646026761694
20
8.7409870834392205
30
0
10
-14.097682614412587
20
8.7405279281621464
30
0
0
SPLINE
5
118
100
AcDbEntity
8
0
100
AcDbSpline
70
0
71
3
72
16
73
12
74
0
42
0.000000001
43
0.0000000001
44
0.0000000001
40
0
40
0
40
0
40
0
40
0.01855725936033677
40
0.01855725936033677
40
0.035601328711389095
40
0.035601328711389095
40
0.052836504258799946
40
0.052836504258799946
40
0.064063821459809184
40
0.064063821459809184
40
0.072853070570563519
40
0.072853070570563519
40
0.072853070570563519
40
0.072853070570563519
10
-14.097682614412845
20
8.7405279281621659
30
0
10
-14.097906849784177
20
8.7381029375812105
30
0
10
-14.098578368776018
20
8.7357642539573366
30
0
10
-14.100766665495801
20
8.7316508577994902
30
0
10
-14.102177529318391
20
8.7299100836394956
30
0
10
-14.105616558511047
20
8.7270369740509395
30
0
10
-14.107609499318405
20
8.725947159012799
30
0
10
-14.111156048711313
20
8.7248149126865133
30
0
10
-14.112603307572996
20
8.7245452187934038
30
0
10
-14.115217486452263
20
8.7243796956716047
30
0
10
-14.116774492604726
20
8.7243799721912225
30
0
10
-14.118669234059571
20
8.7247400483089663
30
0
0
SPLINE
5
119
100
AcDbEntity
8
0
100
AcDbSpline
70
0
71
3
72
14
73
10
74
0
42
0.000000001
43
0.0000000001
44
0.0000000001
40
0
40
0
40
0
40
0
40
1.6016554120639785
40
1.6016554120639785
40
3.2201220856028803
40
3.2201220856028803
40
4.094821661412066
40
4.094821661412066
40
5.2275026495383266
40
5.2275026495383266
40
5.2275026495383266
40
5.2275026495383266
10
-14.118669234059576
20
8.7247400483089645
30
0
10
-14.325164498064114
20
8.7639823977146829
30
0
10
-14.521356708180292
20
8.8421615526074131
30
0
10
-14.876318900896862
20
9.0703630003426525
30
0
10
-15.030906071917704
20
9.2188031831354831
30
0
10
-15.218629028462848
20
9.4861824015864329
30
0
10
-15.274445328361043
20
9.5866382076780727
30
0
10
-15.377343115758469
20
9.8287653798470611
30
0
10
-15.405856042165802
20
9.9478444780989648
30
0
10
-15.42089194786471
20
10.026964684518401
30
0
0
SPLINE
5
120
100
AcDbEntity
8
0
100
AcDbSpline
70
0
71
3
72
16
73
12
74
0
42
0.000000001
43
0.0000000001
44
0.0000000001
40
0
40
0
40
0
40
0
40
0.018631938406863349
40
0.018631938406863349
40
0.035676539894664738
40
0.035676539894664738
40
0.052894657021501063
40
0.052894657021501063
40
0.06440678653972666
40
0.06440678653972666
40
0.082516407755321514
40
0.082516407755321514
40
0.082516407755321514
40
0.082516407755321514
10
-15.420891947887224
20
10.026964684541902
30
0
10
-15.421348437187717
20
10.029366831272707
30
0
10
-15.421349849188321
20
10.031809489054679
30
0
10
-15.420379160102586
20
10.036376352382007
30
0
10
-15.419503610694736
20
10.038438432403083
30
0
10
-15.416991994397145
20
10.042146604570352
30
0
10
-15.415378868706982
20
10.043742417712446
30
0
10
-15.412254025660797
20
10.045828909342779
30
0
10
-15.410901825925697
20
10.046500059576248
30
0
10
-15.407243353818723
20
10.047780115091685
30
0
10
-15.405425755059719
20
10.047926019002325
30
0
10
-15.404832796013702
20
10.047973617540361
30
0
0
ARC
5
121
100
AcDbEntity
8
0
100
AcDbCircle
10
-15.417744107127023
20
10.207558784572047
30
0
40
0.16010661289027342
210
-0
220
0
230
1
100
AcDbArc
50
274.62546657442499
51
277.38547757656647
0
SPLINE
5
122
100
AcDbEntity
8
0
100
AcDbSpline
70
0
71
3
72
14
73
10
74
0
42
0.000000001
43
0.0000000001
44
0.0000000001
40
0
40
0
40
0
40
0
40
0.018572787179270793
40
0.018572787179270793
40
0.035770009191716079
40
0.035770009191716079
40
0.051889779690141052
40
0.051889779690141052
40
0.068837168112488134
40
0.068837168112488134
40
0.068837168112488134
40
0.068837168112488134
10
-15.397163326991151
20
10.048780472447383
30
0
10
-15.394746064715275
20
10.049092935849645
30
0
10
-15.392310103896842
20
10.048947352333563
30
0
10
-15.387795075340311
20
10.047708232966153
30
0
10
-15.385768310635079
20
10.046702129833674
30
0
10
-15.382319644719775
20
10.044038649629872
30
0
10
-15.380908755549283
20
10.04245768440925
30
0
10
-15.378651100554361
20
10.038764726778696
30
0
10
-15.377867708156741
20
10.03668194867735
30
0
10
-15.377451701920885
20
10.034498366668172
30
0
0
SPLINE
5
123
100
AcDbEntity
8
0
100
AcDbSpline
70
0
71
3
72
14
73
10
74
0
42
0.000000001
43
0.0000000001
44
0.0000000001
40
0
40
0
40
0
40
0
40
1.5575682878163937
40
1.5575682878163937
40
3.1327971768950116
40
3.1327971768950116
40
3.982402931092925
40
3.982402931092925
40
4.8494526392079749
40
4.8494526392079749
40
4.8494526392079749
40
4.8494526392079749
10
-15.377451701922704
20
10.034498366667831
30
0
10
-15.339199947821934
20
9.8337041319179637
30
0
10
-15.263080516413636
20
9.6429394648117803
30
0
10
-15.04096055847427
20
9.2976674165133915
30
0
10
-14.896430659047574
20
9.1472409488841464
30
0
10
-14.636326434979996
20
8.9647326543706409
30
0
10
-14.538747902588572
20
8.9105225570816202
30
0
10
-14.331696037455405
20
8.8225018789722736
30
0
10
-14.222796140637847
20
8.7894551957670242
30
0
10
-14.11113572368046
20
8.7681836502503234
30
0
0
SPLINE
5
124
100
AcDbEntity
8
0
100
AcDbSpline
70
0
71
3
72
14
73
10
74
0
42
0.000000001
43
0.0000000001
44
0.0000000001
40
0
40
0
40
0
40
0
40
0.018248791318240105
40
0.018248791318240105
40
0.035503441581666156
40
0.035503441581666156
40
0.049247460079074323
40
0.049247460079074323
40
0.063566719265379212
40
0.063566719265379212
40
0.063566719265379212
40
0.063566719265379212
10
-14.18503890415456
20
8.1966086548345203
30
0
10
-14.187398253484336
20
8.1970195061872122
30
0
10
-14.189642283631303
20
8.1978682634856739
30
0
10
-14.193565537619136
20
8.2003616881993313
30
0
10
-14.195213635445874
20
8.2019269081806261
30
0
10
-14.197555747188249
20
8.2052390987386712
30
0
10
-14.198356492788077
20
8.2068571748557044
30
0
10
-14.199466775059568
20
8.2103599335463802
30
0
10
-14.199743956022136
20
8.2122186363510981
30
0
10
-14.199743956022136
20
8.2140957581583667
30
0
0
LINE
5
125
100
AcDbEntity
8
0
100
AcDbLine
10
-14.199743956022136
20
8.2140957581583667
30
0
11
-14.199743956022136
21
8.2213551270548511
31
0
0
SPLINE
5
126
100
AcDbEntity
8
0
100
AcDbSpline
70
0
71
3
72
10
73
6
74
0
42
0.000000001
43
0.0000000001
44
0.0000000001
40
0
40
0
40
0
40
0
40
0.0012737116186018163
40
0.0012737116186018163
40
0.0026746060529260155
40
0.0026746060529260155
40
0.0026746060529260155
40
0.0026746060529260155
10
-14.199743956022136
20
8.2213551270548511
30
0
10
-14.199743956022136
20
8.2215222808105732
30
0
10
-14.199743931168101
20
8.2217772602799144
30
0
10
-14.199744640598302
20
8.2222338463994991
30
0
10
-14.199745417589929
20
8.2224661061456086
30
0
10
-14.199746894052696
20
8.2227034537950185
30
0
0
SPLINE
5
127
100
AcDbEntity
8
0
100
AcDbSpline
70
0
71
3
72
16
73
12
74
0
42
0.000000001
43
0.0000000001
44
0.0000000001
40
0
40
0
40
0
40
0
40
0.01857688531339392
40
0.01857688531339392
40
0.035514741718211756
40
0.035514741718211756
40
0.052775977817069303
40
0.052775977817069303
40
0.065853338262282873
40
0.065853338262282873
40
0.083191045712130207
40
0.083191045712130207
40
0.083191045712130207
40
0.083191045712130207
10
-14.199746894930435
20
8.2227034537899737
30
0
10
-14.199761435825733
20
8.2251413218835356
30
0
10
-14.199323924928001
20
8.2275340251498061
30
0
10
-14.197550730148423
20
8.2318302256170099
30
0
10
-14.196325326391714
20
8.2336873101357604
30
0
10
-14.193198691370794
20
8.2368817461227213
30
0
10
-14.191320784628363
20
8.2381710692091978
30
0
10
-14.187686137184571
20
8.2397583644599468
30
0
10
-14.186029974813302
20
8.2402125166365785
30
0
10
-14.182082966937408
20
8.2407118101792278
30
0
10
-14.180222189764454
20
8.2405181055981416
30
0
10
-14.178939679450687
20
8.240293864995051
30
0
0
ARC
5
128
100
AcDbEntity
8
0
100
AcDbCircle
10
-13.813132443511957
20
10.332498168838818
30
0
40
2.1239429801403613
210
0
220
0
230
1
100
AcDbArc
50
260.08248395781806
51
265.72539232511082
0
LINE
5
129
100
AcDbEntity
8
0
100
AcDbLine
10
-13.97144432964147
20
8.21446343597969
30
0
11
-13.655695689617124
21
8.2144634459383941
31
0
0
LINE
5
130
100
AcDbEntity
8
0
100
AcDbLine
10
-13.655695689617124
20
8.2144634459383941
30
0
11
-13.654863311368926
21
8.2144603137485177
31
0
0
ARC
5
131
100
AcDbEntity
8
0
100
AcDbCircle
10
-13.813130660488882
20
10.332479851952009
30
0
40
2.1239245085476055
210
-0
220
0
230
1
100
AcDbArc
50
274.27344012240269
51
279.91753401687157
0
SPLINE
5
132
100
AcDbEntity
8
0
100
AcDbSpline
70
0
71
3
72
16
73
12
74
0
42
0.000000001
43
0.0000000001
44
0.0000000001
40
0
40
0
40
0
40
0
40
0.018587503897704194
40
0.018587503897704194
40
0.035523063429446604
40
0.035523063429446604
40
0.052779461893581493
40
0.052779461893581493
40
0.065873418691886024
40
0.065873418691886024
40
0.086557380060280437
40
0.086557380060280437
40
0.086557380060280437
40
0.086557380060280437
10
-13.447325949561623
20
8.2402938584328567
30
0
10
-13.444923089624535
20
8.2407139451813372
30
0
10
-13.442489558652795
20
8.2406805647095211
30
0
10
-13.437957347420181
20
8.2396459196731424
30
0
10
-13.435922780281452
20
8.2387464089305844
30
0
10
-13.43225398460469
20
8.2361946201703748
30
0
10
-13.430671083103169
20
8.2345575812784109
30
0
10
-13.428500866649477
20
8.2312360633204236
30
0
10
-13.427777072639541
20
8.2296763340741297
30
0
10
-13.42650261946301
20
8.2254457709336251
30
0
10
-13.426514715169642
20
8.2233825857297678
30
0
10
-13.426518887711893
20
8.2226708679264195
30
0
0
LINE
5
133
100
AcDbEntity
8
0
100
AcDbLine
10
-13.42651888771189
20
8.2226708679264195
30
0
11
-13.426521635465495
21
8.2213551270548511
31
0
0
LINE
5
134
100
AcDbEntity
8
0
100
AcDbLine
10
-13.426521635465495
20
8.2213551270548511
30
0
11
-13.426521635465495
21
8.2140957581583667
31
0
0
SPLINE
5
135
100
AcDbEntity
8
0
100
AcDbSpline
70
0
71
3
72
14
73
10
74
0
42
0.000000001
43
0.0000000001
44
0.0000000001
40
0
40
0
40
0
40
0
40
0.018257821366339046
40
0.018257821366339046
40
0.035510158298387461
40
0.035510158298387461
40
0.049251403054912081
40
0.049251403054912081
40
0.063568970964179849
40
0.063568970964179849
40
0.063568970964179849
40
0.063568970964179849
10
-13.426521635465495
20
8.2140957581583667
30
0
10
-13.426521635465495
20
8.2116997186089797
30
0
10
-13.426973006022976
20
8.2093422011130084
30
0
10
-13.428757183566939
20
8.2050487535538945
30
0
10
-13.43001643407541
20
8.2031570419780717
30
0
10
-13.432877634415355
20
8.2002823311900013
30
0
10
-13.43433418354323
20
8.1992163402419767
30
0
10
-13.437594209179851
20
8.1975222960928491
30
0
10
-13.439377642904963
20
8.1969306151683288
30
0
10
-13.44122670931824
20
8.1966086510051266
30
0
0
ARC
5
136
100
AcDbEntity
8
0
100
AcDbCircle
10
-13.813137449584667
20
10.332535131069921
30
0
40
2.1680635431111015
210
0
220
0
230
1
100
AcDbArc
50
274.14427203526361
51
279.8774000337757
0
LINE
5
137
100
AcDbEntity
8
0
100
AcDbLine
10
-13.656455533812974
20
8.1701405546251937
30
0
11
-13.969810057674662
21
8.1701405546251937
31
0
0
ARC
5
138
100
AcDbEntity
8
0
100
AcDbCircle
10
-13.813128141903103
20
10.332535131068783
30
0
40
2.1680635431086821
210
0
220
0
230
1
100
AcDbArc
50
260.12259937646928
51
265.85572796473775
0
SPLINE
5
139
100
AcDbEntity
8
0
100
AcDbSpline
70
0
71
3
72
12
73
8
74
0
42
0.000000001
43
0.0000000001
44
0.0000000001
40
0
40
0
40
0
40
0
40
2.0781935473677704
40
2.0781935473677704
40
3.9666768113812934
40
3.9666768113812934
40
6.8438165015705579
40
6.8438165015705579
40
6.8438165015705579
40
6.8438165015705579
10
-13.002207910034771
20
8.3694552911791309
30
0
10
-12.750139681634762
20
8.4735831602682552
30
0
10
-12.521228940464407
20
8.6246969660588277
30
0
10
-12.149919260026691
20
8.9886101493696078
30
0
10
-12.004636740387269
20
9.1915735050244649
30
0
10
-11.734650087779942
20
9.7548617437427989
30
0
10
-11.705869616766437
20
10.054165640254455
30
0
10
-11.698230131993542
20
10.136662799403116
30
0
0
SPLINE
5
140
100
AcDbEntity
8
0
100
AcDbSpline
70
0
71
3
72
14
73
10
74
0
42
0.000000001
43
0.0000000001
44
0.0000000001
40
0
40
0
40
0
40
0
40
0.018474958172438903
40
0.018474958172438903
40
0.035684904585039173
40
0.035684904585039173
40
0.051118703566172624
40
0.051118703566172624
40
0.067302647061783766
40
0.067302647061783766
40
0.067302647061783766
40
0.067302647061783766
10
-11.698230132003861
20
10.136662799385888
30
0
10
-11.698006563050789
20
10.139077004809304
30
0
10
-11.697333605509101
20
10.141409697117162
30
0
10
-11.695143497392156
20
10.145535725149784
30
0
10
-11.693717311265585
20
10.147295509152361
30
0
10
-11.690432758671779
20
10.150024183121484
30
0
10
-11.688669478564098
20
10.151026658189217
30
0
10
-11.684774347471047
20
10.15242643032769
30
0
10
-11.682678479193106
20
10.152774992980959
30
0
10
-11.680556171191407
20
10.152774992980959
30
0
0
LINE
5
141
100
AcDbEntity
8
0
100
AcDbLine
10
-11.680556171191407
20
10.152774992980959
30
0
11
-11.671937498502604
21
10.152774992980959
31
0
0
SPLINE
5
142
100
AcDbEntity
8
0
100
AcDbSpline
70
0
71
3
72
16
73
12
74
0
42
0.000000001
43
0.0000000001
44
0.0000000001
40
0
40
0
40
0
40
0
40
0.018663253126642118
40
0.018663253126642118
40
0.035733050848566004
40
0.035733050848566004
40
0.052935203158634848
40
0.052935203158634848
40
0.064070204973034117
40
0.064070204973034117
40
0.07246705599171975
40
0.07246705599171975
40
0.07246705599171975
40
0.07246705599171975
10
-11.671937498502604
20
10.152774992980959
30
0
10
-11.66948825268546
20
10.152774992980959
30
0
10
-11.667083511138962
20
10.152319295261574
30
0
10
-11.662771598063838
20
10.150509695027322
30
0
10
-11.660906567233123
20
10.149262277557314
30
0
10
-11.657734268301967
20
10.146098917854919
30
0
10
-11.65647142538656
20
10.14421729745392
30
0
10
-11.655029480556081
20
10.140802960185598
30
0
10
-11.654632296359711
20
10.139398253941922
30
0
10
-11.65423608997205
20
10.136873286502325
30
0
10
-11.654083855023247
20
10.135323252385607
30
0
10
-11.654261668492838
20
10.133394432894201
30
0
0
SPLINE
5
143
100
AcDbEntity
8
0
100
AcDbSpline
70
0
71
3
72
12
73
8
74
0
42
0.000000001
43
0.0000000001
44
0.0000000001
40
0
40
0
40
0
40
0
40
2.122005632353968
40
2.122005632353968
40
4.0485754253626434
40
4.0485754253626434
40
6.007698438814292
40
6.007698438814292
40
6.007698438814292
40
6.007698438814292
10
-11.654261668484121
20
10.133394432893402
30
0
10
-11.679837028185995
20
9.8560929063180236
30
0
10
-11.758228076572633
20
9.5872207270668266
30
0
10
-12.001215798170056
20
9.1154842775960088
30
0
10
-12.155266318561056
20
8.9127483275418129
30
0
10
-12.52903707328092
20
8.566780999152126
30
0
10
-12.74655929191387
20
8.4275470649517619
30
0
10
-12.98407672655186
20
8.3292494856406787
30
0
0
SPLINE
5
144
100
AcDbEntity
8
0
100
AcDbSpline
70
0
71
3
72
14
73
10
74
0
42
0.000000001
43
0.0000000001
44
0.0000000001
40
0
40
0
40
0
40
0
40
0.018337279186840798
40
0.018337279186840798
40
0.035573261956992536
40
0.035573261956992536
40
0.049940447139115204
40
0.049940447139115204
40
0.064944654700607271
40
0.064944654700607271
40
0.064944654700607271
40
0.064944654700607271
10
-12.984076726551894
20
8.3292494856409007
30
0
10
-12.986300300635168
20
8.3283292671196545
30
0
10
-12.988660948955955
20
8.3278422435039889
30
0
10
-12.99331822410563
20
8.3278521374163432
30
0
10
-12.995544689778962
20
8.3282929215251791
30
0
10
-12.999366942928182
20
8.3298705947562652
30
0
10
-13.000971243811247
20
8.330865042024076
30
0
10
-13.003875891067461
20
8.3333850453347793
30
0
10
-13.005128643876475
20
8.3349045601882708
30
0
10
-13.006131934681424
20
8.3365965780267075
30
0
0
SPLINE
5
145
100
AcDbEntity
8
0
100
AcDbSpline
70
0
71
3
72
10
73
6
74
0
42
0.000000001
43
0.0000000001
44
0.0000000001
40
0
40
0
40
0
40
0
40
0.0020507772357386276
40
0.0020507772357386276
40
0.0041010918440152425
40
0.0041010918440152425
40
0.0041010918440152425
40
0.0041010918440152425
10
-13.006131934457745
20
8.3365965781389395
30
0
10
-13.006269201886388
20
8.336828071289311
30
0
10
-13.007514451020334
20
8.3389047462054418
30
0
10
-13.008928689551482
20
8.3411961641804524
30
0
10
-13.010224764701523
20
8.3432374042524717
30
0
10
-13.010369971940966
20
8.3434636820063055
30
0
0
SPLINE
5
146
100
AcDbEntity
8
0
100
AcDbSpline
70
0
71
3
72
16
73
12
74
0
42
0.000000001
43
0.0000000001
44
0.0000000001
40
0
40
0
40
0
40
0
40
0.018578102788734601
40
0.018578102788734601
40
0.035515684182925104
40
0.035515684182925104
40
0.05277556636655098
40
0.05277556636655098
40
0.065846617553129552
40
0.065846617553129552
40
0.083162602516495279
40
0.083162602516495279
40
0.083162602516495279
40
0.083162602516495279
10
-13.01036997319779
20
8.3434636809860194
30
0
10
-13.011686781294971
20
8.3455155600682431
30
0
10
-13.012597508984671
20
8.3477711841545439
30
0
10
-13.013398244315548
20
8.3523495555607319
30
0
10
-13.013356663246594
20
8.3545740677448403
30
0
10
-13.012424442773883
20
8.3589454846161413
30
0
10
-13.011527870237659
20
8.3610393160875134
30
0
10
-13.009307071718915
20
8.3643241712334451
30
0
10
-13.008151540327496
20
8.3655934162852006
30
0
10
-13.005087317783449
20
8.3681251223490083
30
0
10
-13.003413295772022
20
8.3689573760687512
30
0
10
-13.002208237810924
20
8.3694551557798302
30
0
0
SPLINE
5
147
100
AcDbEntity
8
0
100
AcDbSpline
70
0
71
3
72
16
73
12
74
0
42
0.000000001
43
0.0000000001
44
0.0000000001
40
0
40
0
40
0
40
0
40
0.018628330720975205
40
0.018628330720975205
40
0.035674830588462346
40
0.035674830588462346
40
0.052895512400187666
40
0.052895512400187666
40
0.064369529432429087
40
0.064369529432429087
40
0.073292891468553792
40
0.073292891468553792
40
0.073292891468553792
40
0.073292891468553792
10
-13.507591417541029
20
8.7247461399014039
30
0
10
-13.509993093528253
20
8.7242897094282981
30
0
10
-13.512435286733933
20
8.7242882928472714
30
0
10
-13.517002004954767
20
8.7252586473823932
30
0
10
-13.519064414636912
20
8.7261341794466336
30
0
10
-13.522773281257416
20
8.7286458328288514
30
0
10
-13.524369502103932
20
8.7302590887934102
30
0
10
-13.526453578296735
20
8.7333799602042639
30
0
10
-13.527123129454228
20
8.7347273498977245
30
0
10
-13.528006656338208
20
8.7372458099212889
30
0
10
-13.528437152338533
20
8.7387802858375672
30
0
10
-13.528596632464282
20
8.7407503718387147
30
0
0
SPLINE
5
148
100
AcDbEntity
8
0
100
AcDbSpline
70
0
71
3
72
10
73
6
74
0
42
0.000000001
43
0.0000000001
44
0.0000000001
40
0
40
0
40
0
40
0
40
0.010072697923657815
40
0.010072697923657815
40
0.019908131631083677
40
0.019908131631083677
40
0.019908131631083677
40
0.019908131631083677
10
-13.528596640705002
20
8.7407503711614982
30
0
10
-13.528701626245773
20
8.742068071874229
30
0
10
-13.528825125037699
20
8.7433817108901088
30
0
10
-13.529101271338245
20
8.7459802846642027
30
0
10
-13.52937995706996
20
8.748254957980885
30
0
10
-13.529412275614581
20
8.7485088084499658
30
0
0
SPLINE
5
149
100
AcDbEntity
8
0
100
AcDbSpline
70
0
71
3
72
14
73
10
74
0
42
0.000000001
43
0.0000000001
44
0.0000000001
40
0
40
0
40
0
40
0
40
0.0185561697469886
40
0.0185561697469886
40
0.035750897283204686
40
0.035750897283204686
40
0.051836986008144417
40
0.051836986008144417
40
0.068747884027950207
40
0.068747884027950207
40
0.068747884027950207
40
0.068747884027950207
10
-13.529412351025421
20
8.7485087988400903
30
0
10
-13.529720412989382
20
8.7509244275760611
30
0
10
-13.529570725471768
20
8.7533579815057792
30
0
10
-13.528325000353281
20
8.7578686493041182
30
0
10
-13.527315711974529
20
8.7598935614302054
30
0
10
-13.524649665349431
20
8.7633343655927618
30
0
10
-13.523070359834408
20
8.7647404825630808
30
0
10
-13.519383458424469
20
8.7669905764004277
30
0
10
-13.517304895698921
20
8.7677715907110283
30
0
10
-13.515126000954218
20
8.7681866801548249
30
0
0
SPLINE
5
150
100
AcDbEntity
8
0
100
AcDbSpline
70
0
71
3
72
14
73
10
74
0
42
0.000000001
43
0.0000000001
44
0.0000000001
40
0
40
0
40
0
40
0
40
1.5575712419151766
40
1.5575712419151766
40
3.1328000468184292
40
3.1328000468184292
40
3.9824034891022859
40
3.9824034891022859
40
4.8494511087112731
40
4.8494511087112731
40
4.8494511087112731
40
4.8494511087112731
10
-13.515126000954206
20
8.7681866801547628
30
0
10
-13.314331381525079
20
8.8064384865891299
30
0
10
-13.123566333114185
20
8.882558039254473
30
0
10
-12.778294022563825
20
9.1046782722081492
30
0
10
-12.627867614474079
20
9.2492081818273046
30
0
10
-12.445359649716856
20
9.5093122464533781
30
0
10
-12.391149748566445
20
9.6068905299311709
30
0
10
-12.303129364076096
20
9.8139418889194392
30
0
10
-12.270082786551761
20
9.9228415229451361
30
0
10
-12.248811292617875
20
10.0345016691296
30
0
0
SPLINE
5
151
100
AcDbEntity
8
0
100
AcDbSpline
70
0
71
3
72
14
73
10
74
0
42
0.000000001
43
0.0000000001
44
0.0000000001
40
0
40
0
40
0
40
0
40
0.018576021338685592
40
0.018576021338685592
40
0.035773990152881234
40
0.035773990152881234
40
0.051891866038427575
40
0.051891866038427575
40
0.068836872392273804
40
0.068836872392273804
40
0.068836872392273804
40
0.068836872392273804
10
-12.248811292614837
20
10.034501669128174
30
0
10
-12.24835503213901
20
10.036896389537171
30
0
10
-12.247457630642245
20
10.039166159391002
30
0
10
-12.244873184488434
20
10.043070814581961
30
0
10
-12.243285637511104
20
10.044683297554503
30
0
10
-12.239680356528238
20
10.047130323546833
30
0
10
-12.237738745189588
20
10.047978311524659
30
0
10
-12.23352677180554
20
10.048972902534807
30
0
10
-12.23130391503199
20
10.049068413857682
30
0
10
-12.229099721364967
20
10.048783492416051
30
0
0
ARC
5
152
100
AcDbEntity
8
0
100
AcDbCircle
10
-12.208533336919201
20
10.207445046859871
30
0
40
0.15998895283018888
210
0
220
0
230
1
100
AcDbArc
50
262.61426018150598
51
265.50993609004087
0
SPLINE
5
153
100
AcDbEntity
8
0
100
AcDbSpline
70
0
71
3
72
16
73
12
74
0
42
0.000000001
43
0.0000000001
44
0.0000000001
40
0
40
0
40
0
40
0
40
0.018533581589521737
40
0.018533581589521737
40
0.035582032378374651
40
0.035582032378374651
40
0.052825662574061891
40
0.052825662574061891
40
0.063931834404641757
40
0.063931834404641757
40
0.072667087391834431
40
0.072667087391834431
40
0.072667087391834431
40
0.072667087391834431
10
-12.221058266069775
20
10.047947110514494
30
0
10
-12.218637619656402
20
10.047710031022643
30
0
10
-12.216305492971779
20
10.04702649841038
30
0
10
-12.212205725081203
20
10.044817927386749
30
0
10
-12.210471765268514
20
10.043397436923513
30
0
10
-12.207615559958631
20
10.03994198792822
30
0
10
-12.20653575876395
20
10.037942310781915
30
0
10
-12.205426901992805
20
10.034403623276885
30
0
10
-12.20516586149833
20
10.032970966584358
30
0
10
-12.205008748789684
20
10.030379128499849
30
0
10
-12.205013234347819
20
10.028840528071617
30
0
10
-12.205368546970353
20
10.026970779023271
30
0
0
SPLINE
5
154
100
AcDbEntity
8
0
100
AcDbSpline
70
0
71
3
72
14
73
10
74
0
42
0.000000001
43
0.0000000001
44
0.0000000001
40
0
40
0
40
0
40
0
40
0.55863976472529386
40
0.55863976472529386
40
0.91780189599099316
40
0.91780189599099316
40
1.1046450259042613
40
1.1046450259042613
40
1.2952987810162853
40
1.2952987810162853
40
1.2952987810162853
40
1.2952987810162853
10
-12.205368546989208
20
10.026970779026882
30
0
10
-12.219055766602651
20
9.954947490462013
30
0
10
-12.267101540093901
20
9.7019999881201908
30
0
10
-12.567348868559089
20
9.2501706149162661
30
0
10
-12.718275160241092
20
9.0977196038157384
30
0
10
-12.985247899770005
20
8.9163982353843529
30
0
10
-13.08263978783115
20
8.8637687228120559
30
0
10
-13.288704040709955
20
8.7781077825099985
30
0
10
-13.396837483934133
20
8.7457938245778486
30
0
10
-13.507591278629214
20
8.7247461663006707
30
0
0
SPLINE
5
155
100
AcDbEntity
8
0
100
AcDbSpline
70
0
71
3
72
14
73
10
74
0
42
0.000000001
43
0.0000000001
44
0.0000000001
40
0
40
0
40
0
40
0
40
1.7310260309069141
40
1.7310260309069141
40
3.4785657137871993
40
3.4785657137871993
40
4.553520724636611
40
4.553520724636611
40
5.6535010855438941
40
5.6535010855438941
40
5.6535010855438941
40
5.6535010855438941
10
-15.560411277211646
20
10.052205885465249
30
0
10
-15.524428712190671
20
9.8279049597272525
30
0
10
-15.446131702316972
20
9.6136155564845165
30
0
10
-15.210803412988961
20
9.2232356544515248
30
0
10
-15.055444065362842
20
9.0517233563214763
30
0
10
-14.759235982900796
20
8.8303554854758737
30
0
10
-14.636771874089208
20
8.7597977853330526
30
0
10
-14.374590649676344
20
8.648028510013221
30
0
10
-14.235818663077799
20
8.6080674859616693
30
0
10
-14.093430537504336
20
8.5852255566950131
30
0
0
SPLINE
5
156
100
AcDbEntity
8
0
100
AcDbSpline
70
0
71
3
72
14
73
10
74
0
42
0.000000001
43
0.0000000001
44
0.0000000001
40
0
40
0
40
0
40
0
40
0.018289689444733991
40
0.018289689444733991
40
0.035535562472511828
40
0.035535562472511828
40
0.049560738006556596
40
0.049560738006556596
40
0.064188459513262353
40
0.064188459513262353
40
0.064188459513262353
40
0.064188459513262353
10
-14.093430506050742
20
8.5852255516492448
30
0
10
-14.091060584612727
20
8.5848453718970923
30
0
10
-14.088800477301458
20
8.5840251446650324
30
0
10
-14.084841757748435
20
8.5815807709498912
30
0
10
-14.083174491341969
20
8.5800382249352296
30
0
10
-14.080769045534105
20
8.5767279529727798
30
0
10
-14.079936166594534
20
8.575084532960572
30
0
10
-14.078780039116207
20
8.5715155700833456
30
0
10
-14.078491545133462
20
8.5696175507512624
30
0
10
-14.078491545133462
20
8.5676999159240737
30
0
0
LINE
5
157
100
AcDbEntity
8
0
100
AcDbLine
10
-14.078491545133458
20
8.5676999159240737
30
0
11
-14.078491545133462
21
8.5548556528921846
31
0
0
SPLINE
5
158
100
AcDbEntity
8
0
100
AcDbSpline
70
0
71
3
72
10
73
6
74
0
42
0.000000001
43
0.0000000001
44
0.0000000001
40
0
40
0
40
0
40
0
40
0.0056368125227474171
40
0.0056368125227474171
40
0.011273581536133944
40
0.011273581536133944
40
0.011273581536133944
40
0.011273581536133944
10
-14.078491545133462
20
8.5548556528921846
30
0
10
-14.078846968304569
20
8.5542068937548574
30
0
10
-14.07919785531246
20
8.5535556596348084
30
0
10
-14.079890503029233
20
8.5522483423674469
30
0
10
-14.080232255470724
20
8.551592274994583
30
0
10
-14.080569412840882
20
8.5509338446570915
30
0
0
SPLINE
5
159
100
AcDbEntity
8
0
100
AcDbSpline
70
0
71
3
72
14
73
10
74
0
42
0.000000001
43
0.0000000001
44
0.0000000001
40
0
40
0
40
0
40
0
40
0.017946426432843401
40
0.017946426432843401
40
0.035290676827660974
40
0.035290676827660974
40
0.045965613380319986
40
0.045965613380319986
40
0.056970484428844725
40
0.056970484428844725
40
0.056970484428844725
40
0.056970484428844725
10
-14.080569412315205
20
8.5509338443879273
30
0
10
-14.081643306683505
20
8.5488377537892752
30
0
10
-14.083098152917108
20
8.5469773333081758
30
0
10
-14.086614915528699
20
8.5439775080212108
30
0
10
-14.088609064584793
20
8.5428564840043517
30
0
10
-14.092095101710564
20
8.5417114948700092
30
0
10
-14.093469029254132
20
8.5414367488456548
30
0
10
-14.096299962016179
20
8.5412113937984326
30
0
10
-14.097742390663873
20
8.5412722089217468
30
0
10
-14.099166626959535
20
8.5414996477122127
30
0
0
SPLINE
5
160
100
AcDbEntity
8
0
100
AcDbSpline
70
0
71
3
72
14
73
10
74
0
42
0.000000001
43
0.0000000001
44
0.0000000001
40
0
40
0
40
0
40
0
40
1.7753058162965769
40
1.7753058162965769
40
3.5659567893309769
40
3.5659567893309769
40
4.6705328541830493
40
4.6705328541830493
40
6.1046007016653814
40
6.1046007016653814
40
6.1046007016653814
40
6.1046007016653814
10
-14.099166626959194
20
8.5414996477143212
30
0
10
-14.32923085506469
20
8.5782422969589689
30
0
10
-14.549049847471265
20
8.6583802717871468
30
0
10
-14.949365772302484
20
8.8993974911296103
30
0
10
-15.125182481981826
20
9.058481513017691
30
0
10
-15.352409265404496
20
9.3622004873989741
30
0
10
-15.424932224563397
20
9.4880250917072892
30
0
10
-15.55535247081905
20
9.7940632762794522
30
0
10
-15.588053711726882
20
9.9457621072533282
30
0
10
-15.604137680054636
20
10.046471962101682
30
0
0
SPLINE
5
161
100
AcDbEntity
8
0
100
AcDbSpline
70
0
71
3
72
14
73
10
74
0
42
0.000000001
43
0.0000000001
44
0.0000000001
40
0
40
0
40
0
40
0
40
0.017938085841760616
40
0.017938085841760616
40
0.035283363619417148
40
0.035283363619417148
40
0.045960265559847738
40
0.045960265559847738
40
0.056965961810628588
40
0.056965961810628588
40
0.056965961810628588
40
0.056965961810628588
10
-15.604137680078722
20
10.046471962106287
30
0
10
-15.604508918024376
20
10.048796585239616
30
0
10
-15.604433735066946
20
10.05115602901367
30
0
10
-15.603368277990979
20
10.055652995838761
30
0
10
-15.602421315537809
20
10.057735696321847
30
0
10
-15.600284689657366
20
10.060719195222893
30
0
10
-15.599338226040288
20
10.061752715761154
30
0
10
-15.59718684274206
20
10.063607073448953
30
0
10
-15.595986941343018
20
10.064410122399394
30
0
10
-15.594703254543013
20
10.065067882117411
30
0
0
SPLINE
5
162
100
AcDbEntity
8
0
100
AcDbSpline
70
0
71
3
72
10
73
6
74
0
42
0.000000001
43
0.0000000001
44
0.0000000001
40
0
40
0
40
0
40
0
40
0.0056332973109888933
40
0.0056332973109888933
40
0.011266659820026016
40
0.011266659820026016
40
0.011266659820026016
40
0.011266659820026016
10
-15.594703254518576
20
10.065067882069734
30
0
10
-15.594045297864648
20
10.065404964847831
30
0
10
-15.593389679431223
20
10.065746594085798
30
0
10
-15.592083210053501
20
10.066438901887327
30
0
10
-15.591432373347425
20
10.066789573039932
30
0
10
-15.590783987388946
20
10.067144735056564
30
0
0
LINE
5
163
100
AcDbEntity
8
0
100
AcDbLine
10
-15.590783987388946
20
10.067144735056564
30
0
11
-15.577937000048829
21
10.067144735056559
31
0
0
SPLINE
5
164
100
AcDbEntity
8
0
100
AcDbSpline
70
0
71
3
72
14
73
10
74
0
42
0.000000001
43
0.0000000001
44
0.0000000001
40
0
40
0
40
0
40
0
40
0.018288301741425185
40
0.018288301741425185
40
0.035533183535528423
40
0.035533183535528423
40
0.049559045221888143
40
0.049559045221888143
40
0.06418788428116988
40
0.06418788428116988
40
0.06418788428116988
40
0.06418788428116988
10
-15.577937000048829
20
10.067144735056559
30
0
10
-15.575536960450215
20
10.067144735056559
30
0
10
-15.573175647974425
20
10.066692879977126
30
0
10
-15.568880015676125
20
10.06490651634024
30
0
10
-15.566989581499554
20
10.063647595835693
30
0
10
-15.564090191555522
20
10.060760151920279
30
0
10
-15.56300747871286
20
10.059269316859007
30
0
10
-15.561300570785933
20
10.055928295297232
30
0
10
-15.560715069512373
20
10.054099776561781
30
0
10
-15.560411327079377
20
10.052206196334826
30
0
0
SPLINE
5
165
100
AcDbEntity
8
0
100
AcDbSpline
70
0
71
3
72
14
73
10
74
0
42
0.000000001
43
0.0000000001
44
0.0000000001
40
0
40
0
40
0
40
0
40
0.018289518874652425
40
0.018289518874652425
40
0.03553667189109655
40
0.03553667189109655
40
0.049561551211908722
40
0.049561551211908722
40
0.064188077719337808
40
0.064188077719337808
40
0.064188077719337808
40
0.064188077719337808
10
-15.560411092787053
20
10.612804458104147
30
0
10
-15.560791398125081
20
10.610434579486784
30
0
10
-15.561611741883492
20
10.608174542034504
30
0
10
-15.564056337734415
20
10.604215786864174
30
0
10
-15.565599064745092
20
10.602548436733883
30
0
10
-15.568909500221581
20
10.600143000600756
30
0
10
-15.570552897549602
20
10.59931014193984
30
0
10
-15.574121667687992
20
10.598154072000497
30
0
10
-15.576019526969707
20
10.597865571695966
30
0
10
-15.577937000048829
20
10.597865571695966
30
0
0
LINE
5
166
100
AcDbEntity
8
0
100
AcDbLine
10
-15.577937000048829
20
10.597865571695966
30
0
11
-15.590784171169592
21
10.597865571695973
31
0
0
SPLINE
5
167
100
AcDbEntity
8
0
100
AcDbSpline
70
0
71
3
72
10
73
6
74
0
42
0.000000001
43
0.0000000001
44
0.0000000001
40
0
40
0
40
0
40
0
40
0.0056332674314248585
40
0.0056332674314248585
40
0.011266059563392383
40
0.011266059563392383
40
0.011266059563392383
40
0.011266059563392383
10
-15.590784171169592
20
10.597865571695973
30
0
10
-15.591432553291099
20
10.598220714743976
30
0
10
-15.592083385196077
20
10.598571367666693
30
0
10
-15.593389794580489
20
10.599263620430452
30
0
10
-15.594045356870534
20
10.599605213198737
30
0
10
-15.594703254518592
20
10.599942265737086
30
0
0
SPLINE
5
168
100
AcDbEntity
8
0
100
AcDbSpline
70
0
71
3
72
14
73
10
74
0
42
0.000000001
43
0.0000000001
44
0.0000000001
40
0
40
0
40
0
40
0
40
0.017944704628958225
40
0.017944704628958225
40
0.035291221593642494
40
0.035291221593642494
40
0.045964579408382326
40
0.045964579408382326
40
0.056967320131414111
40
0.056967320131414111
40
0.056967320131414111
40
0.056967320131414111
10
-15.594703254543013
20
10.599942265689394
30
0
10
-15.596799087160774
20
10.601016168039768
30
0
10
-15.598659262175326
20
10.60247099883226
30
0
10
-15.60165909733105
20
10.605987860278852
30
0
10
-15.602780272323603
20
10.607982320843016
30
0
10
-15.603925268478045
20
10.611468459330393
30
0
10
-15.604200011659817
20
10.612842184076364
30
0
10
-15.604425450220392
20
10.615672627964051
30
0
10
-15.604364740611111
20
10.617114783473735
30
0
10
-15.604137435975197
20
10.618538760140378
30
0
0
SPLINE
5
169
100
AcDbEntity
8
0
100
AcDbSpline
70
0
71
3
72
14
73
10
74
0
42
0.000000001
43
0.0000000001
44
0.0000000001
40
0
40
0
40
0
40
0
40
1.7753071825791273
40
1.7753071825791273
40
3.5659585127980931
40
3.5659585127980931
40
4.6705333740453332
40
4.6705333740453332
40
5.8010596918873105
40
5.8010596918873105
40
5.8010596918873105
40
5.8010596918873105
10
-15.604137436005894
20
10.618538760143332
30
0
10
-15.56739478371977
20
10.848603169337501
30
0
10
-15.487256788151425
20
11.06842232039059
30
0
10
-15.246239485865454
20
11.468738449300789
30
0
10
-15.087155456181765
20
11.64455520790106
30
0
10
-14.783436627646399
20
11.871781976488172
30
0
10
-14.657612192481878
20
11.944304906277257
30
0
10
-14.388166721273887
20
12.059131106315055
30
0
10
-14.2455240235241
20
12.100136286601149
30
0
10
-14.099166318874222
20
12.123510509559061
30
0
0
SPLINE
5
170
100
AcDbEntity
8
0
100
AcDbSpline
70
0
71
3
72
14
73
10
74
0
42
0.000000001
43
0.0000000001
44
0.0000000001
40
0
40
0
40
0
40
0
40
0.017955128270919579
40
0.017955128270919579
40
0.035297314097209362
40
0.035297314097209362
40
0.045968927225530594
40
0.045968927225530594
40
0.056971599971260126
40
0.056971599971260126
40
0.056971599971260126
40
0.056971599971260126
10
-14.099166318874236
20
12.123510509558443
30
0
10
-14.096839486049886
20
12.123882093083935
30
0
10
-14.094477863414271
20
12.12380689355283
30
0
10
-14.089979387327249
20
12.122740075861762
30
0
10
-14.087897476264086
20
12.121792892764789
30
0
10
-14.084915495453322
20
12.119656082657345
30
0
10
-14.083882778950045
20
12.118709847735238
30
0
10
-14.082029533807111
20
12.116558967542755
30
0
10
-14.081226857929211
20
12.115359321534639
30
0
10
-14.080569211539009
20
12.114076030662458
30
0
0
SPLINE
5
171
100
AcDbEntity
8
0
100
AcDbSpline
70
0
71
3
72
10
73
6
74
0
42
0.000000001
43
0.0000000001
44
0.0000000001
40
0
40
0
40
0
40
0
40
0.0011267872177111074
40
0.0011267872177111074
40
0.0022531227286887315
40
0.0022531227286887315
40
0.0022531227286887315
40
0.0022531227286887315
10
-14.080569211595829
20
12.114076030636157
30
0
10
-14.080501770631493
20
12.113944432973723
30
0
10
-14.079890439147764
20
12.112762700065042
30
0
10
-14.079197685171779
20
12.111455756093811
30
0
10
-14.07884686112512
20
12.110804818895602
30
0
10
-14.078491545133462
20
12.110156333048661
30
0
0
LINE
5
172
100
AcDbEntity
8
0
100
AcDbLine
10
-14.078491545133462
20
12.110156333048662
30
0
11
-14.078491545133462
21
12.097310390828451
31
0
0
SPLINE
5
173
100
AcDbEntity
8
0
100
AcDbSpline
70
0
71
3
72
14
73
10
74
0
42
0.000000001
43
0.0000000001
44
0.0000000001
40
0
40
0
40
0
40
0
40
0.018287870097277698
40
0.018287870097277698
40
0.035532475956648157
40
0.035532475956648157
40
0.049558989246254612
40
0.049558989246254612
40
0.064188829833597791
40
0.064188829833597791
40
0.064188829833597791
40
0.064188829833597791
10
-14.078491545133462
20
12.097310390828451
30
0
10
-14.078491545133462
20
12.094910407876053
30
0
10
-14.078943391346501
20
12.092549155349873
30
0
10
-14.080729728805165
20
12.088253610124406
30
0
10
-14.081988634982363
20
12.086363214988481
30
0
10
-14.084876112675213
20
12.083463781912506
30
0
10
-14.086367021139676
20
12.082381022686127
30
0
10
-14.089708237937083
20
12.080674006420875
30
0
10
-14.091536884729074
20
12.08008845568825
30
0
10
-14.093430593800351
20
12.079784661553559
30
0
0
SPLINE
5
174
100
AcDbEntity
8
0
100
AcDbSpline
70
0
71
3
72
14
73
10
74
0
42
0.000000001
43
0.0000000001
44
0.0000000001
40
0
40
0
40
0
40
0
40
1.7310252066760394
40
1.7310252066760394
40
3.4785631565426822
40
3.4785631565426822
40
4.5535192802857729
40
4.5535192802857729
40
5.6535012634291739
40
5.6535012634291739
40
5.6535012634291739
40
5.6535012634291739
10
-14.093430593800361
20
12.07978466155364
30
0
10
-14.317731443856129
20
12.043802307649923
30
0
10
-14.532020817249624
20
11.965505518714172
30
0
10
-14.92240060861362
20
11.730177694932761
30
0
10
-15.093912839214857
20
11.574818633754992
30
0
10
-15.315280852547199
20
11.278610755090243
30
0
10
-15.385838668047581
20
11.156146545368639
30
0
10
-15.49760811650588
20
10.893965000697115
30
0
10
-15.537569175113578
20
10.755192804109241
30
0
10
-15.560411092818732
20
10.612804458109309
30
0
0
SPLINE
5
175
100
AcDbEntity
8
0
100
AcDbSpline
70
0
71
3
72
14
73
10
74
0
42
0.000000001
43
0.0000000001
44
0.0000000001
40
0
40
0
40
0
40
0
40
1.7753085075884043
40
1.7753085075884043
40
3.5659571928508988
40
3.5659571928508988
40
4.6705318233179822
40
4.6705318233179822
40
5.801058614072927
40
5.801058614072927
40
5.801058614072927
40
5.801058614072927
10
-13.52709799549592
20
12.123510508672416
30
0
10
-13.297033412271027
20
12.086767843496297
30
0
10
-13.077214123027343
20
12.006629823297423
30
0
10
-12.676898240053044
20
11.765612466015394
30
0
10
-12.501081858121703
20
11.606528636620798
30
0
10
-12.273855430874457
20
11.302810027409942
30
0
10
-12.201332578894323
20
11.176985592969757
30
0
10
-12.086506445473148
20
10.907540059212129
30
0
10
-12.045501275374194
20
10.76489729553694
30
0
10
-12.02212700756227
20
10.618539534354481
30
0
0
SPLINE
5
176
100
AcDbEntity
8
0
100
AcDbSpline
70
0
71
3
72
14
73
10
74
0
42
0.000000001
43
0.0000000001
44
0.0000000001
40
0
40
0
40
0
40
0
40
0.017949659381367236
40
0.017949659381367236
40
0.035294568370231712
40
0.035294568370231712
40
0.045966535166947556
40
0.045966535166947556
40
0.056968191229041384
40
0.056968191229041384
40
0.056968191229041384
40
0.056968191229041384
10
-12.022127007548459
20
10.618539534356653
30
0
10
-12.021755594316103
20
10.616213401134084
30
0
10
-12.021830851668383
20
10.613852454084856
30
0
10
-12.022897285725312
20
10.609354240887706
30
0
10
-12.023844493398467
20
10.60727183088841
30
0
10
-12.025981299321991
20
10.604289346346006
30
0
10
-12.026927483465146
20
10.603256495386702
30
0
10
-12.029078190526066
20
10.601403182327395
30
0
10
-12.030277697812769
20
10.600600535027695
30
0
10
-12.031560896437968
20
10.599943003780204
30
0
0
SPLINE
5
177
100
AcDbEntity
8
0
100
AcDbSpline
70
0
71
3
72
10
73
6
74
0
42
0.000000001
43
0.0000000001
44
0.0000000001
40
0
40
0
40
0
40
0
40
0.0056334482835596923
40
0.0056334482835596923
40
0.011268384912433912
40
0.011268384912433912
40
0.011268384912433912
40
0.011268384912433912
10
-12.031560896462858
20
10.599943003834001
30
0
10
-12.032218842015455
20
10.599605855940505
30
0
10
-12.03287448175861
20
10.599264169387022
30
0
10
-12.034181108128006
20
10.598571674347902
30
0
10
-12.034832109300142
20
10.598220866173127
30
0
10
-12.035480658244442
20
10.597865571695964
30
0
0
LINE
5
178
100
AcDbEntity
8
0
100
AcDbLine
10
-12.03548065824444
20
10.597865571695964
30
0
11
-12.048327319873046
21
10.597865571695966
31
0
0
SPLINE
5
179
100
AcDbEntity
8
0
100
AcDbSpline
70
0
71
3
72
14
73
10
74
0
42
0.000000001
43
0.0000000001
44
0.0000000001
40
0
40
0
40
0
40
0
40
0.01829162393397676
40
0.01829162393397676
40
0.035536374612300192
40
0.035536374612300192
40
0.049560056928754835
40
0.049560056928754835
40
0.064186529972310516
40
0.064186529972310516
40
0.064186529972310516
40
0.064186529972310516
10
-12.048327319873046
20
10.597865571695966
30
0
10
-12.050727795454932
20
10.597865571695966
30
0
10
-12.053089538074232
20
10.598317492438628
30
0
10
-12.057385496526255
20
10.600104129875225
30
0
10
-12.059275864952928
20
10.601363075068138
30
0
10
-12.062174903707355
20
10.604250420520138
30
0
10
-12.063257386476101
20
10.605741048107024
30
0
10
-12.064963929620138
20
10.609081569150236
30
0
10
-12.065549305189654
20
10.610909790106168
30
0
10
-12.065853001874041
20
10.612803054101331
30
0
0
SPLINE
5
180
100
AcDbEntity
8
0
100
AcDbSpline
70
0
71
3
72
14
73
10
74
0
42
0.000000001
43
0.0000000001
44
0.0000000001
40
0
40
0
40
0
40
0
40
1.7310227981806237
40
1.7310227981806237
40
3.4785593105743833
40
3.4785593105743833
40
4.5535188715661103
40
4.5535188715661103
40
5.6535044608996223
40
5.6535044608996223
40
5.6535044608996223
40
5.6535044608996223
10
-12.065853036610104
20
10.61280327064128
30
0
10
-12.101835146194924
20
10.837103839773896
30
0
10
-12.180131637121956
20
11.051392962405005
30
0
10
-12.415458841771214
20
11.441772541597457
30
0
10
-12.570817616999456
20
11.613284767406233
30
0
10
-12.867025451856744
20
11.834653285689933
30
0
10
-12.989490000232649
20
11.905211435683809
30
0
10
-13.251672328920973
20
12.016981411284531
30
0
10
-13.390444973749872
20
12.056942655535707
30
0
10
-13.532833785997475
20
12.079784671158945
30
0
0
SPLINE
5
181
100
AcDbEntity
8
0
100
AcDbSpline
70
0
71
3
72
14
73
10
74
0
42
0.000000001
43
0.0000000001
44
0.0000000001
40
0
40
0
40
0
40
0
40
0.018282543179604212
40
0.018282543179604212
40
0.035529002163786731
40
0.035529002163786731
40
0.049555753182217659
40
0.049555753182217659
40
0.064184782494915771
40
0.064184782494915771
40
0.064184782494915771
40
0.064184782494915771
10
-13.532833785995896
20
12.079784671162892
30
0
10
-13.535202770286334
20
12.080164771909148
30
0
10
-13.537461975996543
20
12.080984783457499
30
0
10
-13.54142007569966
20
12.083428569900352
30
0
10
-13.543087501487188
20
12.084971152410766
30
0
10
-13.54549333706867
20
12.088281525974438
30
0
10
-13.546326439696356
20
12.089925101405486
30
0
10
-13.54748289547917
20
12.093494382734294
30
0
10
-13.547771503222657
20
12.095392570988176
30
0
10
-13.547771503222657
20
12.097310390828451
30
0
0
LINE
5
182
100
AcDbEntity
8
0
100
AcDbLine
10
-13.547771503222657
20
12.097310390828451
30
0
11
-13.54777150322265
21
12.110155642384289
31
0
0
SPLINE
5
183
100
AcDbEntity
8
0
100
AcDbSpline
70
0
71
3
72
10
73
6
74
0
42
0.000000001
43
0.0000000001
44
0.0000000001
40
0
40
0
40
0
40
0
40
0.0056411379767773075
40
0.0056411379767773075
40
0.011281521388308069
40
0.011281521388308069
40
0.011281521388308069
40
0.011281521388308069
10
-13.54777150322265
20
12.110155642384289
30
0
10
-13.547415834736769
20
12.110804914374688
30
0
10
-13.547064681934168
20
12.111456643011465
30
0
10
-13.546371440014198
20
12.112764824588428
30
0
10
-13.545760285696272
20
12.113946368720532
30
0
10
-13.545692837746195
20
12.114077980013974
30
0
0
SPLINE
5
184
100
AcDbEntity
8
0
100
AcDbSpline
70
0
71
3
72
14
73
10
74
0
42
0.000000001
43
0.0000000001
44
0.0000000001
40
0
40
0
40
0
40
0
40
0.017943683234944347
40
0.017943683234944347
40
0.035288507150312433
40
0.035288507150312433
40
0.045960511779026263
40
0.045960511779026263
40
0.056961174132147067
40
0.056961174132147067
40
0.056961174132147067
40
0.056961174132147067
10
-13.545692837980202
20
12.114077980117528
30
0
10
-13.544618896474844
20
12.116173642056072
30
0
10
-13.543164073035848
20
12.118033642351882
30
0
10
-13.539647355818392
20
12.12103308571532
30
0
10
-13.537653045513604
20
12.122154079583657
30
0
10
-13.534167254582943
20
12.123298800786742
30
0
10
-13.532793694170932
20
12.123573451186656
30
0
10
-13.529963701122375
20
12.123798698172662
30
0
10
-13.528521826847664
20
12.123737912942884
30
0
10
-13.527098146595954
20
12.123510532804511
30
0
0
SPLINE
5
185
100
AcDbEntity
8
0
100
AcDbSpline
70
0
71
3
72
14
73
10
74
0
42
0.000000001
43
0.0000000001
44
0.0000000001
40
0
40
0
40
0
40
0
40
2.1244199661924101
40
2.1244199661924101
40
4.2560095451104747
40
4.2560095451104747
40
5.9397722503945278
40
5.9397722503945278
40
8.1401462865422314
40
8.1401462865422314
40
8.1401462865422314
40
8.1401462865422314
10
-13.614020727073715
20
12.491375015508906
30
0
10
-13.336403695192891
20
12.46577058566881
30
0
10
-13.067870432738887
20
12.387743414583033
30
0
10
-12.572210359951567
20
12.132331335218913
30
0
10
-12.350847711863986
20
11.957344432286678
30
0
10
-12.025075824158307
20
11.578485729865276
30
0
10
-11.907503930295421
20
11.390310458908141
30
0
10
-11.706830088316293
20
10.922681930871711
30
0
10
-11.66860363505991
20
10.687118196669209
30
0
10
-11.654261525686165
20
10.531614166629463
30
0
0
SPLINE
5
186
100
AcDbEntity
8
0
100
AcDbSpline
70
0
71
3
72
16
73
12
74
0
42
0.000000001
43
0.0000000001
44
0.0000000001
40
0
40
0
40
0
40
0
40
0.018657388215415158
40
0.018657388215415158
40
0.035725708032996614
40
0.035725708032996614
40
0.052928082655617242
40
0.052928082655617242
40
0.064064711699671748
40
0.064064711699671748
40
0.07246365695311173
40
0.07246365695311173
40
0.07246365695311173
40
0.07246365695311173
10
-11.654261525663026
20
10.531614166638008
30
0
10
-11.654036670108605
20
10.529176037148792
30
0
10
-11.654269553380209
20
10.526740372646392
30
0
10
-11.655675096203037
20
10.522281355774854
30
0
10
-11.656745832839714
20
10.520309767078542
30
0
10
-11.65960425006997
20
10.516860347942266
30
0
10
-11.661361924160786
20
10.515429934318522
30
0
10
-11.664629573760575
20
10.513680268808702
30
0
10
-11.665992064451958
20
10.513155651449251
30
0
10
-11.668470462648468
20
10.512529108101607
30
0
10
-11.670000219268674
20
10.512235154825847
30
0
10
-11.671937498502604
20
10.512235154825847
30
0
0
LINE
5
187
100
AcDbEntity
8
0
100
AcDbLine
10
-11.671937498502604
20
10.512235154825847
30
0
11
-11.680556171191407
21
10.512235154825847
31
0
0
SPLINE
5
188
100
AcDbEntity
8
0
100
AcDbSpline
70
0
71
3
72
14
73
10
74
0
42
0.000000001
43
0.0000000001
44
0.0000000001
40
0
40
0
40
0
40
0
40
0.0184777596156947
40
0.0184777596156947
40
0.035688293446143812
40
0.035688293446143812
40
0.051121038914169276
40
0.051121038914169276
40
0.067302959053725742
40
0.067302959053725742
40
0.067302959053725742
40
0.067302959053725742
10
-11.680556171191407
20
10.512235154825847
30
0
10
-11.682981074028113
20
10.512235154825847
30
0
10
-11.685366237768365
20
10.512690198114019
30
0
10
-11.689677016567071
20
10.5144907324354
30
0
10
-11.691560856779349
20
10.515748622400874
30
0
10
-11.694580675607389
20
10.518767558217325
30
0
10
-11.695741384881371
20
10.520430772881545
30
0
10
-11.697494176019752
20
10.524179853741233
30
0
10
-11.698034461646863
20
10.526234381191468
30
0
10
-11.698230133891384
20
10.528347368803162
30
0
0
SPLINE
5
189
100
AcDbEntity
8
0
100
AcDbSpline
70
0
71
3
72
14
73
10
74
0
42
0.000000001
43
0.0000000001
44
0.0000000001
40
0
40
0
40
0
40
0
40
0.70365037096631577
40
0.70365037096631577
40
1.1598893825581129
40
1.1598893825581129
40
1.5121626887810817
40
1.5121626887810817
40
1.8747951009474693
40
1.8747951009474693
40
1.8747951009474693
40
1.8747951009474693
10
-11.698230133883422
20
10.528347368802981
30
0
10
-11.706744815309772
20
10.620296540267757
30
0
10
-11.738716039953406
20
10.955384337196438
30
0
10
-12.065439692129083
20
11.570247552081433
30
0
10
-12.239818786327854
20
11.78517971151061
30
0
10
-12.611718645173481
20
12.096761991208755
30
0
10
-12.793130493305615
20
12.207713158013519
30
0
10
-13.18857307427248
20
12.374467257081278
30
0
10
-13.4003280300489
20
12.42731597019344
30
0
10
-13.617288847339056
20
12.447406861510725
30
0
0
SPLINE
5
190
100
AcDbEntity
8
0
100
AcDbSpline
70
0
71
3
72
14
73
10
74
0
42
0.000000001
43
0.0000000001
44
0.0000000001
40
0
40
0
40
0
40
0
40
0.018472249795307871
40
0.018472249795307871
40
0.03568273541814606
40
0.03568273541814606
40
0.051117880412008709
40
0.051117880412008709
40
0.067302499654813788
40
0.067302499654813788
40
0.067302499654813788
40
0.067302499654813788
10
-13.617288904139375
20
12.447406866770445
30
0
10
-13.619702757135748
20
12.447630386872536
30
0
10
-13.622035107033955
20
12.448303241299001
30
0
10
-13.626160973171499
20
12.450493066080501
30
0
10
-13.627920887833636
20
12.451919245769973
30
0
10
-13.630649903607614
20
12.455203844820455
30
0
10
-13.631652580987001
20
12.456967239369975
30
0
10
-13.633052623915423
20
12.460862559335458
30
0
10
-13.633401284309896
20
12.462958505701257
30
0
10
-13.633401284309896
20
12.465080903727214
30
0
0
LINE
5
191
100
AcDbEntity
8
0
100
AcDbLine
10
-13.633401284309896
20
12.465080903727214
30
0
11
-13.633401284309896
21
12.473700847981771
31
0
0
SPLINE
5
192
100
AcDbEntity
8
0
100
AcDbSpline
70
0
71
3
72
16
73
12
74
0
42
0.000000001
43
0.0000000001
44
0.0000000001
40
0
40
0
40
0
40
0
40
0.018656248572097123
40
0.018656248572097123
40
0.035725286134046089
40
0.035725286134046089
40
0.052928789637324787
40
0.052928789637324787
40
0.064064909955097102
40
0.064064909955097102
40
0.072463085294058011
40
0.072463085294058011
40
0.072463085294058011
40
0.072463085294058011
10
-13.633401284309896
20
12.473700847981771
30
0
10
-13.633401284309896
20
12.476149174566034
30
0
10
-13.632945725761092
20
12.478553011823353
30
0
10
-13.631136723061084
20
12.482864092562879
30
0
10
-13.629889422364053
20
12.484729131489196
30
0
10
-13.626726212445806
20
12.487901724936988
30
0
10
-13.62484450239919
20
12.489164821937466
30
0
10
-13.621429930241094
20
12.490607103267509
30
0
10
-13.620025092025209
20
12.491004396494301
30
0
10
-13.617499801870736
20
12.491400718622261
30
0
10
-13.615949562614674
20
12.491552958636094
30
0
10
-13.614020716349756
20
12.491375131783807
30
0
0
SPLINE
5
193
100
AcDbEntity
8
0
100
AcDbSpline
70
0
71
3
72
14
73
10
74
0
42
0.000000001
43
0.0000000001
44
0.0000000001
40
0
40
0
40
0
40
0
40
0.018467302485584564
40
0.018467302485584564
40
0.035678454024244542
40
0.035678454024244542
40
0.051115521646571377
40
0.051115521646571377
40
0.067300792081130781
40
0.067300792081130781
40
0.067300792081130781
40
0.067300792081130781
10
-15.928034183565352
20
10.528347554368809
30
0
10
-15.928257654022048
20
10.525934348806182
30
0
10
-15.928930356289175
20
10.523602636791118
30
0
10
-15.931119723956593
20
10.519477146750713
30
0
10
-15.932545897677594
20
10.517717056493929
30
0
10
-15.935830547952031
20
10.514987552533752
30
0
10
-15.937594105544681
20
10.513984570176074
30
0
10
-15.94148964767658
20
10.512584127571785
30
0
10
-15.94358566363556
20
10.512235313771567
30
0
10
-15.945708148730469
20
10.512235313771567
30
0
0
LINE
5
194
100
AcDbEntity
8
0
100
AcDbLine
10
-15.945708148730469
20
10.512235313771569
30
0
11
-15.954328092984687
21
10.512235313772671
31
0
0
SPLINE
5
195
100
AcDbEntity
8
0
100
AcDbSpline
70
0
71
3
72
16
73
12
74
0
42
0.000000001
43
0.0000000001
44
0.0000000001
40
0
40
0
40
0
40
0
40
0.018657523372993548
40
0.018657523372993548
40
0.035729136011746952
40
0.035729136011746952
40
0.052934555739450134
40
0.052934555739450134
40
0.064069349957272953
40
0.064069349957272953
40
0.072465960864037754
40
0.072465960864037754
40
0.072465960864037754
40
0.072465960864037754
10
-15.954328092984687
20
10.512235313772671
30
0
10
-15.956776586865404
20
10.512235348938988
30
0
10
-15.959180588573226
20
10.512690979865731
30
0
10
-15.963492139679323
20
10.514500167329857
30
0
10
-15.965357481186565
20
10.515747657329637
30
0
10
-15.96853049689407
20
10.518911272619212
30
0
10
-15.969793753191402
20
10.520793192608867
30
0
10
-15.971236007421643
20
10.5242078532342
30
0
10
-15.971633247843796
20
10.52561252078263
30
0
10
-15.972029501228654
20
10.528137433145696
30
0
10
-15.972181714153049
20
10.529687445356945
30
0
10
-15.972003923809293
20
10.53161602396874
30
0
0
SPLINE
5
196
100
AcDbEntity
8
0
100
AcDbSpline
70
0
71
3
72
14
73
10
74
0
42
0.000000001
43
0.0000000001
44
0.0000000001
40
0
40
0
40
0
40
0
40
2.1244243602843818
40
2.1244243602843818
40
4.2560164718944211
40
4.2560164718944211
40
5.9397751758364805
40
5.9397751758364805
40
7.6735927520367131
40
7.6735927520367131
40
7.6735927520367131
40
7.6735927520367131
10
-15.972003923818383
20
10.531616023969574
30
0
10
-15.946399301819895
20
10.809233617227596
30
0
10
-15.868371839187512
20
11.077767416976071
30
0
10
-15.612959063451671
20
11.573428142525119
30
0
10
-15.437971831296808
20
11.794790966934974
30
0
10
-15.0591130234106
20
12.120562409965824
30
0
10
-14.870938157458887
20
12.238133917362125
30
0
10
-14.459480871828013
20
12.414702753225633
30
0
10
-14.238653802653134
20
12.470493872709206
30
0
10
-14.012244082722237
20
12.491375405495095
30
0
0
SPLINE
5
197
100
AcDbEntity
8
0
100
AcDbSpline
70
0
71
3
72
16
73
12
74
0
42
0.000000001
43
0.0000000001
44
0.0000000001
40
0
40
0
40
0
40
0
40
0.018661387460549239
40
0.018661387460549239
40
0.035731899961947158
40
0.035731899961947158
40
0.05293524128455606
40
0.05293524128455606
40
0.064070021618125
40
0.064070021618125
40
0.072468589430317962
40
0.072468589430317962
40
0.072468589430317962
40
0.072468589430317962
10
-14.012244082722338
20
12.491375405494598
30
0
10
-14.00980542944659
20
12.491600296570908
30
0
10
-14.007369240738601
20
12.491367360307789
30
0
10
-14.002909478180554
20
12.489961508641025
30
0
10
-14.000937654657299
20
12.488890613625403
30
0
10
-13.997487992712218
20
12.486031860399432
30
0
10
-13.996057540664959
20
12.484274064391373
30
0
10
-13.994308032062124
20
12.481006477449618
30
0
10
-13.993783514430845
20
12.479644215880651
30
0
10
-13.993157021417057
20
12.47716611665944
30
0
10
-13.992863140187017
20
12.475636667294618
30
0
10
-13.992863035579523
20
12.473699964079975
30
0
0
LINE
5
198
100
AcDbEntity
8
0
100
AcDbLine
10
-13.99286303557952
20
12.473699964079975
30
0
11
-13.992863035569846
21
12.465082590891548
31
0
0
SPLINE
5
199
100
AcDbEntity
8
0
100
AcDbSpline
70
0
71
3
72
14
73
10
74
0
42
0.000000001
43
0.0000000001
44
0.0000000001
40
0
40
0
40
0
40
0
40
0.018484920747533655
40
0.018484920747533655
40
0.035698175645675692
40
0.035698175645675692
40
0.051128549031471293
40
0.051128549031471293
40
0.067308873178349507
40
0.067308873178349507
40
0.067308873178349507
40
0.067308873178349507
10
-13.992863035569846
20
12.465082590891548
30
0
10
-13.992863184857063
20
12.462656748278354
30
0
10
-13.99331854052247
20
12.46027066509232
30
0
10
-13.995119995402673
20
12.455958881850075
30
0
10
-13.996378256983967
20
12.454074889143904
30
0
10
-13.999397627894108
20
12.451055458747193
30
0
10
-14.00106068880401
20
12.449895143075425
30
0
10
-14.004809444825428
20
12.448142909888697
30
0
10
-14.00686378616296
20
12.447602824869948
30
0
10
-14.008976561638564
20
12.447407196302102
30
0
0
SPLINE
5
200
100
AcDbEntity
8
0
100
AcDbSpline
70
0
71
3
72
14
73
10
74
0
42
0.000000001
43
0.0000000001
44
0.0000000001
40
0
40
0
40
0
40
0
40
2.0795694371858415
40
2.0795694371858415
40
4.1682132987939724
40
4.1682132987939724
40
5.8163532944576328
40
5.8163532944576328
40
8.3682094379156862
40
8.3682094379156862
40
8.3682094379156862
40
8.3682094379156862
10
-14.008976753646143
20
12.447407178522674
30
0
10
-14.280723486272629
20
12.422242913240009
30
0
10
-14.543565382157944
20
12.345756598869801
30
0
10
-15.02895293867029
20
12.095507696791513
30
0
10
-15.245836420005606
20
11.923988241436405
30
0
10
-15.564850738687918
20
11.552879699655184
30
0
10
-15.679949634691329
20
11.368685656583891
30
0
10
-15.897039126634938
20
10.863064508984055
30
0
10
-15.920768790491367
20
10.606806847121732
30
0
10
-15.928034183569235
20
10.528347554402322
30
0
0
SPLINE
5
201
100
AcDbEntity
8
0
100
AcDbSpline
70
0
71
3
72
16
73
12
74
0
42
0.000000001
43
0.0000000001
44
0.0000000001
40
0
40
0
40
0
40
0
40
0.018581646794914024
40
0.018581646794914024
40
0.035520382892141093
40
0.035520382892141093
40
0.052780564015742104
40
0.052780564015742104
40
0.062181952699783563
40
0.062181952699783563
40
0.071766057288542157
40
0.071766057288542157
40
0.071766057288542157
40
0.071766057288542157
10
-14.624057353676706
20
8.369455116043401
30
0
10
-14.621803533943035
20
8.3685241187203925
30
0
10
-14.619766473118663
20
8.3671937563282786
30
0
10
-14.616491879442162
20
8.3638944605934089
30
0
10
-14.61525430436723
20
8.362045351384614
30
0
10
-14.613520276020431
20
8.3579255170478568
30
0
10
-14.613058991299345
20
8.3556949620150505
30
0
10
-14.613010146178986
20
8.3522098908335014
30
0
10
-14.613120494091605
20
8.3509827583579597
30
0
10
-14.613594787741784
20
8.3485460571681518
30
0
10
-14.61396472017732
20
8.3473316435310174
30
0
10
-14.614457187694249
20
8.3461742507771479
30
0
0
SPLINE
5
202
100
AcDbEntity
8
0
100
AcDbSpline
70
0
71
3
72
14
73
10
74
0
42
0.000000001
43
0.0000000001
44
0.0000000001
40
0
40
0
40
0
40
0
40
0.090039497000445431
40
0.090039497000445431
40
0.16227598613476396
40
0.16227598613476396
40
0.22976470733872484
40
0.22976470733872484
40
0.30026048532124444
40
0.30026048532124444
40
0.30026048532124444
40
0.30026048532124444
10
-14.614457187694246
20
8.3461742507771479
30
0
10
-14.620482236209146
20
8.336009530554394
30
0
10
-14.621613840490451
20
8.3341004271017205
30
0
10
-14.625428614255402
20
8.3307184169340296
30
0
10
-14.627393294382777
20
8.3295596798109948
30
0
10
-14.631533736486386
20
8.3281147779830871
30
0
10
-14.633639172203958
20
8.3277931786291592
30
0
10
-14.637970849106805
20
8.3279203719048347
30
0
10
-14.640139476012736
20
8.3284013668552195
30
0
10
-14.642189116330602
20
8.3292495896796783
30
0
0
SPLINE
5
203
100
AcDbEntity
8
0
100
AcDbSpline
70
0
71
3
72
12
73
8
74
0
42
0.000000001
43
0.0000000001
44
0.0000000001
40
0
40
0
40
0
40
0
40
2.1220023398947485
40
2.1220023398947485
40
4.0485707125788197
40
4.0485707125788197
40
6.0076928757138823
40
6.0076928757138823
40
6.0076928757138823
40
6.0076928757138823
10
-14.642189116329956
20
8.3292495896812291
30
0
10
-14.899501908801268
20
8.4357395978749334
30
0
10
-15.133133401186882
20
8.5901851887768998
30
0
10
-15.51183498656464
20
8.9618877143782001
30
0
10
-15.659903233905927
20
9.1690328669904293
30
0
10
-15.879767422638404
20
9.6284427234424133
30
0
10
-15.948395410092418
20
9.8774249770445337
30
0
10
-15.972003774281621
20
10.133392820406874
30
0
0
SPLINE
5
204
100
AcDbEntity
8
0
100
AcDbSpline
70
0
71
3
72
16
73
12
74
0
42
0.000000001
43
0.0000000001
44
0.0000000001
40
0
40
0
40
0
40
0
40
0.018663749083075446
40
0.018663749083075446
40
0.035737742047643573
40
0.035737742047643573
40
0.052943101694525194
40
0.052943101694525194
40
0.064075487554647814
40
0.064075487554647814
40
0.072472727945143867
40
0.072472727945143867
40
0.072472727945143867
40
0.072472727945143867
10
-15.972003774343465
20
10.133392820401243
30
0
10
-15.972228540678437
20
10.135831796414992
30
0
10
-15.971995417905639
20
10.138268289944252
30
0
10
-15.970589142885689
20
10.142728719752247
30
0
10
-15.96951794233339
20
10.144700923820759
30
0
10
-15.966658575099068
20
10.148151000025967
30
0
10
-15.964900507546217
20
10.14958155850036
30
0
10
-15.961632846427369
20
10.151330791527318
30
0
10
-15.9602708560212
20
10.151855113797685
30
0
10
-15.957793202244483
20
10.152481329377643
30
0
10
-15.956264171882511
20
10.152774992980959
30
0
10
-15.954328092985026
20
10.152774992980959
30
0
0
LINE
5
205
100
AcDbEntity
8
0
100
AcDbLine
10
-15.954328092985026
20
10.152774992980959
30
0
11
-15.945708148730469
21
10.152774992980959
31
0
0
SPLINE
5
206
100
AcDbEntity
8
0
100
AcDbSpline
70
0
71
3
72
14
73
10
74
0
42
0.000000001
43
0.0000000001
44
0.0000000001
40
0
40
0
40
0
40
0
40
0.018469467620492053
40
0.018469467620492053
40
0.035682138070689193
40
0.035682138070689193
40
0.051117457959841725
40
0.051117457959841725
40
0.067300839584637756
40
0.067300839584637756
40
0.067300839584637756
40
0.067300839584637756
10
-15.945708148730469
20
10.152774992980959
30
0
10
-15.943284334082112
20
10.152774992980959
30
0
10
-15.940900229522075
20
10.152320106351103
30
0
10
-15.936589997806413
20
10.150520280193357
30
0
10
-15.934705728777612
20
10.149262364441851
30
0
10
-15.931685062183195
20
10.146243360534893
30
0
10
-15.930523878878226
20
10.144579995968737
30
0
10
-15.928770407067551
20
10.14083062069305
30
0
10
-15.928229874105153
20
10.138775954911766
30
0
10
-15.92803418466452
20
10.13666276425317
30
0
0
SPLINE
5
207
100
AcDbEntity
8
0
100
AcDbSpline
70
0
71
3
72
12
73
8
74
0
42
0.000000001
43
0.0000000001
44
0.0000000001
40
0
40
0
40
0
40
0
40
1.4752009848316547
40
1.4752009848316547
40
2.469657050143879
40
2.469657050143879
40
3.4811022151105959
40
3.4811022151105959
40
3.4811022151105959
40
3.4811022151105959
10
-15.928034184671953
20
10.136662764253343
30
0
10
-15.910183309711645
20
9.94389157790574
30
0
10
-15.85656230404842
20
9.6504171944581838
30
0
10
-15.573114083561592
20
9.1191160225388401
30
0
10
-15.423102424604625
20
8.9261169030209775
30
0
10
-15.061650112501802
20
8.5965630873744843
30
0
10
-14.852235970651124
20
8.4637145341611362
30
0
10
-14.624057697144917
20
8.3694552579250026
30
0
0
SPLINE
5
208
100
AcDbEntity
8
0
100
AcDbSpline
70
0
71
3
72
10
73
6
74
0
42
0.000000001
43
0.0000000001
44
0.0000000001
40
0
40
0
40
0
40
0
40
0.071115692337537131
40
0.071115692337537131
40
0.14154884541763532
40
0.14154884541763532
40
0.14154884541763532
40
0.14154884541763532
10
-11.877402653416366
20
10.069575602158192
30
0
10
-11.869359592649012
20
10.07430949405275
30
0
10
-11.861749053498331
20
10.079734887207449
30
0
10
-11.847624240889699
20
10.091796422817124
30
0
10
-11.841128775801758
20
10.098396218709137
30
0
10
-11.83523976288836
20
10.105518662955681
30
0
0
SPLINE
5
209
100
AcDbEntity
8
0
100
AcDbSpline
70
0
71
3
72
12
73
8
74
0
42
0.000000001
43
0.0000000001
44
0.0000000001
40
0
40
0
40
0
40
0
40
1.945793774928837
40
1.945793774928837
40
3.9200736141121162
40
3.9200736141121162
40
5.7450279703431866
40
5.7450279703431866
40
5.7450279703431866
40
5.7450279703431866
10
-11.83523976288836
20
10.105518662955683
30
0
10
-11.864304906796683
20
9.8518246850918594
30
0
10
-11.941615383991044
20
9.606929458363398
30
0
10
-12.186788087629605
20
9.1554022921813836
30
0
10
-12.353557810123068
20
8.9539788516333729
30
0
10
-12.739273230341698
20
8.6389567399300109
30
0
10
-12.949808611642821
20
8.5226422242368773
30
0
10
-13.176742061916388
20
8.4460896960070073
30
0
0
SPLINE
5
210
100
AcDbEntity
8
0
100
AcDbSpline
70
0
71
3
72
10
73
6
74
0
42
0.000000001
43
0.0000000001
44
0.0000000001
40
0
40
0
40
0
40
0
40
0.22164429533141433
40
0.22164429533141433
40
0.44686462900290858
40
0.44686462900290858
40
0.44686462900290858
40
0.44686462900290858
10
-13.176742061916388
20
8.4460896960070144
30
0
10
-13.205667553368858
20
8.4491523517800413
30
0
10
-13.234898741531513
20
8.446597156730272
30
0
10
-13.291227830699064
20
8.4304403964579429
30
0
10
-13.317758043337451
20
8.4168120469221623
30
0
10
-13.340919526410293
20
8.3984497813950671
30
0
0
SPLINE
5
211
100
AcDbEntity
8
0
100
AcDbSpline
70
0
71
3
72
10
73
6
74
0
42
0.000000001
43
0.0000000001
44
0.0000000001
40
0
40
0
40
0
40
0
40
0.31663464371001498
40
0.31663464371001498
40
0.63318672837376289
40
0.63318672837376289
40
0.63318672837376289
40
0.63318672837376289
10
-13.340919526410294
20
8.3984497813950743
30
0
10
-13.381286833861473
20
8.3885937758386397
30
0
10
-13.42195269207609
20
8.380004024569482
30
0
10
-13.503751759809361
20
8.3653841132282789
30
0
10
-13.544864680145315
20
8.3593568913655627
30
0
10
-13.586136009483706
20
8.354620283328039
30
0
0
SPLINE
5
212
100
AcDbEntity
8
0
100
AcDbSpline
70
0
71
3
72
10
73
6
74
0
42
0.000000001
43
0.0000000001
44
0.0000000001
40
0
40
0
40
0
40
0
40
0.070406668735038841
40
0.070406668735038841
40
0.1414954950955104
40
0.1414954950955104
40
0.1414954950955104
40
0.1414954950955104
10
-13.586136009483706
20
8.354620283328039
30
0
10
-13.579015575753848
20
8.3605085644728074
30
0
10
-13.572417638124492
20
8.3670029442503502
30
0
10
-13.560359362526443
20
8.3811251873151544
30
0
10
-13.554935427402476
20
8.3887341607345327
30
0
10
-13.550202689783264
20
8.3967755168631246
30
0
0
SPLINE
5
213
100
AcDbEntity
8
0
100
AcDbSpline
70
0
71
3
72
12
73
8
74
0
42
0.000000001
43
0.0000000001
44
0.0000000001
40
0
40
0
40
0
40
0
40
0.017558214111815653
40
0.017558214111815653
40
0.028984819719430576
40
0.028984819719430576
40
0.040576415233229995
40
0.040576415233229995
40
0.040576415233229995
40
0.040576415233229995
10
-13.550202689777198
20
8.3967755168586962
30
0
10
-13.549033859429901
20
8.398761291350116
30
0
10
-13.547498478152042
20
8.4004973380318564
30
0
10
-13.544477208111948
20
8.4028015207944851
30
0
10
-13.543176057263725
20
8.403554213224762
30
0
10
-13.540393724369721
20
8.4047226635975356
30
0
10
-13.538924652060656
20
8.4051274451180085
30
0
10
-13.537419705700716
20
8.4053427468742399
30
0
0
SPLINE
5
214
100
AcDbEntity
8
0
100
AcDbSpline
70
0
71
3
72
14
73
10
74
0
42
0.000000001
43
0.0000000001
44
0.0000000001
40
0
40
0
40
0
40
0
40
1.9046191713823191
40
1.9046191713823191
40
3.8251480127594193
40
3.8251480127594193
40
5.0912528990465136
40
5.0912528990465136
40
7.0411290401277347
40
7.0411290401277347
40
7.0411290401277347
40
7.0411290401277347
10
-13.537419616100477
20
8.405342759692882
30
0
10
-13.289988989014381
20
8.4407418913643077
30
0
10
-13.052847408687228
20
8.5228295757229695
30
0
10
-12.619273584153488
20
8.7742899307292728
30
0
10
-12.427910338154653
20
8.9417828878895964
30
0
10
-12.172235609433075
20
9.2717771187722668
30
0
10
-12.087782398450083
20
9.4153286617334224
30
0
10
-11.922286237324158
20
9.8028771860445048
30
0
10
-11.894646878884762
20
9.9961450681597182
30
0
10
-11.885970035561582
20
10.056794377348449
30
0
0
SPLINE
5
215
100
AcDbEntity
8
0
100
AcDbSpline
70
0
71
3
72
12
73
8
74
0
42
0.000000001
43
0.0000000001
44
0.0000000001
40
0
40
0
40
0
40
0
40
0.017552107285192256
40
0.017552107285192256
40
0.028979165034995563
40
0.028979165034995563
40
0.040572127277927736
40
0.040572127277927736
40
0.040572127277927736
40
0.040572127277927736
10
-11.88597003560116
20
10.056794377359012
30
0
10
-11.885643793957014
20
10.059074583146117
30
0
10
-11.884883716809684
20
10.061263155679786
30
0
10
-11.882965410611812
20
10.064542170433183
30
0
10
-11.882047950096013
20
10.065732974109162
30
0
10
-11.879918334749743
20
10.067871418122561
30
0
10
-11.878713189937631
20
10.068804278588992
30
0
10
-11.877402837016403
20
10.069575494098185
30
0
0
SPLINE
5
216
100
AcDbEntity
8
0
100
AcDbSpline
70
0
71
3
72
14
73
10
74
0
42
0.000000001
43
0.0000000001
44
0.0000000001
40
0
40
0
40
0
40
0
40
0.018288542952492465
40
0.018288542952492465
40
0.035533515548974319
40
0.035533515548974319
40
0.049559244561768703
40
0.049559244561768703
40
0.064187900655481286
40
0.064187900655481286
40
0.064187900655481286
40
0.064187900655481286
10
-12.065851721276742
20
10.052206037389107
30
0
10
-12.065471593752552
20
10.054575814823329
30
0
10
-12.064651443118553
20
10.056835787456826
30
0
10
-12.062207251585649
20
10.060794307102444
30
0
10
-12.060664802372248
20
10.062461497819863
30
0
10
-12.057354594665785
20
10.064866963414733
30
0
10
-12.055711110842601
20
10.065699880118768
30
0
10
-12.052141957032124
20
10.066856072219473
30
0
10
-12.050243810093814
20
10.06714457611084
30
0
10
-12.048326048307292
20
10.06714457611084
30
0
0
LINE
5
217
100
AcDbEntity
8
0
100
AcDbLine
10
-12.048326048307292
20
10.06714457611084
30
0
11
-12.035479408369325
21
10.067144576110838
31
0
0
SPLINE
5
218
100
AcDbEntity
8
0
100
AcDbSpline
70
0
71
3
72
10
73
6
74
0
42
0.000000001
43
0.0000000001
44
0.0000000001
40
0
40
0
40
0
40
0
40
0.0056383473769097909
40
0.0056383473769097909
40
0.011279504064602321
40
0.011279504064602321
40
0.011279504064602321
40
0.011279504064602321
10
-12.035479408369325
20
10.067144576110838
30
0
10
-12.034830465506051
20
10.06678906907478
30
0
10
-12.034179071876657
20
10.066438048697988
30
0
10
-12.032871168275651
20
10.065744847590924
30
0
10
-12.031689913493855
20
10.065133762862301
30
0
10
-12.031558317424699
20
10.065066314577845
30
0
0
SPLINE
5
219
100
AcDbEntity
8
0
100
AcDbSpline
70
0
71
3
72
14
73
10
74
0
42
0.000000001
43
0.0000000001
44
0.0000000001
40
0
40
0
40
0
40
0
40
0.017949266161869936
40
0.017949266161869936
40
0.035293921966918912
40
0.035293921966918912
40
0.045964413992234839
40
0.045964413992234839
40
0.056964438319644463
40
0.056964438319644463
40
0.056964438319644463
40
0.056964438319644463
10
-12.031558317249388
20
10.065066314965124
30
0
10
-12.029462050932205
20
10.063991946325567
30
0
10
-12.027601547061114
20
10.062536613681408
30
0
10
-12.024602031518027
20
10.059019039304319
30
0
10
-12.023481317424892
20
10.057024678010743
30
0
10
-12.022337097941707
20
10.05353895615316
30
0
10
-12.02206263951634
20
10.052165574895657
30
0
10
-12.021837602427698
20
10.049335847545162
30
0
10
-12.021898428793378
20
10.047894062385785
30
0
10
-12.022125735982703
20
10.046470454504432
30
0
0
SPLINE
5
220
100
AcDbEntity
8
0
100
AcDbSpline
70
0
71
3
72
14
73
10
74
0
42
0.000000001
43
0.0000000001
44
0.0000000001
40
0
40
0
40
0
40
0
40
1.7753018503295315
40
1.7753018503295315
40
3.5659485413712932
40
3.5659485413712932
40
4.6705275631021408
40
4.6705275631021408
40
5.8010588896947963
40
5.8010588896947963
40
5.8010588896947963
40
5.8010588896947963
10
-12.022125735995321
20
10.046470454506448
30
0
10
-12.058868015373394
20
9.8164066943950647
30
0
10
-12.139005518897532
20
9.5965881376428328
30
0
10
-12.380021711129581
20
9.1962728584230984
30
0
10
-12.539105133185366
20
9.0204564114191186
30
0
10
-12.842823620505083
20
8.7932292644738617
30
0
10
-12.968648481220891
20
8.720705956726599
30
0
10
-13.238095019804621
20
8.6058791561912305
30
0
10
-13.380738359669699
20
8.5648737854072508
30
0
10
-13.527096726102801
20
8.5414994798416863
30
0
0
SPLINE
5
221
100
AcDbEntity
8
0
100
AcDbSpline
70
0
71
3
72
14
73
10
74
0
42
0.000000001
43
0.0000000001
44
0.0000000001
40
0
40
0
40
0
40
0
40
0.017941968988518707
40
0.017941968988518707
40
0.035286585367745933
40
0.035286585367745933
40
0.045952024491043783
40
0.045952024491043783
40
0.056946118234390261
40
0.056946118234390261
40
0.056946118234390261
40
0.056946118234390261
10
-13.527096726102796
20
8.5414994798418178
30
0
10
-13.529421851478558
20
8.5411281553939578
30
0
10
-13.531781818920544
20
8.5412033371739629
30
0
10
-13.536279141267068
20
8.5422690838596758
30
0
10
-13.538361682353326
20
8.5432160922425009
30
0
10
-13.541343713116595
20
8.5453520316478038
30
0
10
-13.542376131716706
20
8.5462974412251995
30
0
10
-13.544228798839715
20
8.5484462854132683
30
0
10
-13.545031285632366
20
8.5496447150013744
30
0
10
-13.54568881713648
20
8.5509268049337575
30
0
0
SPLINE
5
222
100
AcDbEntity
8
0
100
AcDbSpline
70
0
71
3
72
10
73
6
74
0
42
0.000000001
43
0.0000000001
44
0.0000000001
40
0
40
0
40
0
40
0
40
0.0056375749928372649
40
0.0056375749928372649
40
0.011287254873733308
40
0.011287254873733308
40
0.011287254873733308
40
0.011287254873733308
10
-13.545688812929701
20
8.5509268068791311
30
0
10
-13.54602647537061
20
8.551585097220805
30
0
10
-13.546368466848024
20
8.5522411870531467
30
0
10
-13.547062256085811
20
8.5535499301710161
30
0
10
-13.547414000670262
20
8.5542026134860141
30
0
10
-13.547770231656903
20
8.5548528555234924
30
0
0
LINE
5
223
100
AcDbEntity
8
0
100
AcDbLine
10
-13.547770231656903
20
8.5548528555234924
30
0
11
-13.547770231656903
21
8.5676997967147823
31
0
0
SPLINE
5
224
100
AcDbEntity
8
0
100
AcDbSpline
70
0
71
3
72
14
73
10
74
0
42
0.000000001
43
0.0000000001
44
0.0000000001
40
0
40
0
40
0
40
0
40
0.018284434277439608
40
0.018284434277439608
40
0.035530302099486488
40
0.035530302099486488
40
0.049557118107035253
40
0.049557118107035253
40
0.064185653199500495
40
0.064185653199500495
40
0.064185653199500495
40
0.064185653199500495
10
-13.547770231656903
20
8.5676997967147823
30
0
10
-13.547770231656903
20
8.5700993287721907
30
0
10
-13.547318457285455
20
8.5724601388132289
30
0
10
-13.545532445440065
20
8.5767555202180468
30
0
10
-13.544273528608363
20
8.5786461666498326
30
0
10
-13.541386119238373
20
8.5815459588065508
30
0
10
-13.539895258607153
20
8.582628896077237
30
0
10
-13.536554291517614
20
8.5843361011575343
30
0
10
-13.534725849879209
20
8.5849217302958021
30
0
10
-13.532832317064083
20
8.5852255083104883
30
0
0
SPLINE
5
225
100
AcDbEntity
8
0
100
AcDbSpline
70
0
71
3
72
14
73
10
74
0
42
0.000000001
43
0.0000000001
44
0.0000000001
40
0
40
0
40
0
40
0
40
1.7310237065786249
40
1.7310237065786249
40
3.478564422972755
40
3.478564422972755
40
4.5535197808070578
40
4.5535197808070578
40
5.6535008115284899
40
5.6535008115284899
40
5.6535008115284899
40
5.6535008115284899
10
-13.532832317063951
20
8.5852255083096427
30
0
10
-13.308531669983504
20
8.6212078846240789
30
0
10
-13.094242446004634
20
8.6995046939255811
30
0
10
-12.703862454690659
20
8.93483253745244
30
0
10
-12.532349868640244
20
9.0901918511821531
30
0
10
-12.310981696488421
20
9.3863999571477965
30
0
10
-12.240423918858548
20
9.5088640808546607
30
0
10
-12.128654575244418
20
9.771045437144096
30
0
10
-12.088693582458893
20
9.9098175214534034
30
0
10
-12.065851765397163
20
10.052205762346157
30
0
0
SPLINE
5
226
100
AcDbEntity
8
0
100
AcDbSpline
70
0
71
3
72
12
73
8
74
0
42
0.000000001
43
0.0000000001
44
0.0000000001
40
0
40
0
40
0
40
0
40
0.017565592928470885
40
0.017565592928470885
40
0.028984609773232993
40
0.028984609773232993
40
0.040566875813008253
40
0.040566875813008253
40
0.040566875813008253
40
0.040566875813008253
10
-14.088844708482267
20
8.4053428168587949
30
0
10
-14.08656275752073
20
8.4050162773517574
30
0
10
-14.0843726015011
20
8.4042556971934754
30
0
10
-14.081093342194052
20
8.402336538965022
30
0
10
-14.079903508660403
20
8.4014196516368322
30
0
10
-14.077767002889942
20
8.3992916715970587
30
0
10
-14.076835058295311
20
8.3980876650313618
30
0
10
-14.076064556822937
20
8.3967785676832758
30
0
0
SPLINE
5
227
100
AcDbEntity
8
0
100
AcDbSpline
70
0
71
3
72
10
73
6
74
0
42
0.000000001
43
0.0000000001
44
0.0000000001
40
0
40
0
40
0
40
0
40
0.059596775853480576
40
0.059596775853480576
40
0.10127196909618072
40
0.10127196909618072
40
0.10127196909618072
40
0.10127196909618072
10
-14.076064557004246
20
8.3967785675802737
30
0
10
-14.072097329968274
20
8.3900383374478817
30
0
10
-14.068429645877067
20
8.3840814916684359
30
0
10
-14.053848551627386
20
8.3670041650097975
30
0
10
-14.047250260867374
20
8.3605092117798332
30
0
10
-14.040129410138876
20
8.3546204820435896
30
0
0
SPLINE
5
228
100
AcDbEntity
8
0
100
AcDbSpline
70
0
71
3
72
10
73
6
74
0
42
0.000000001
43
0.0000000001
44
0.0000000001
40
0
40
0
40
0
40
0
40
0.31655049864926543
40
0.31655049864926543
40
0.63318360776385529
40
0.63318360776385529
40
0.63318360776385529
40
0.63318360776385529
10
-14.040129410138881
20
8.3546204820435825
30
0
10
-14.081400553144173
20
8.3593570968561295
30
0
10
-14.122513297875745
20
8.3653843272839392
30
0
10
-14.204312002295616
20
8.3800042143371893
30
0
10
-14.244977688143747
20
8.3885939354601202
30
0
10
-14.28534482937525
20
8.3984498731142434
30
0
0
SPLINE
5
229
100
AcDbEntity
8
0
100
AcDbSpline
70
0
71
3
72
10
73
6
74
0
42
0.000000001
43
0.0000000001
44
0.0000000001
40
0
40
0
40
0
40
0
40
0.22164369713317433
40
0.22164369713317433
40
0.44686899980860184
40
0.44686899980860184
40
0.44686899980860184
40
0.44686899980860184
10
-14.285344829375248
20
8.3984498731142505
30
0
10
-14.308137979397381
20
8.4165200602002557
30
0
10
-14.334196390007016
20
8.4300086102169178
30
0
10
-14.390425023310854
20
8.4465135559123681
30
0
10
-14.42013005342641
20
8.4492031513923624
30
0
10
-14.449523563741424
20
8.4460908264418446
30
0
0
SPLINE
5
230
100
AcDbEntity
8
0
100
AcDbSpline
70
0
71
3
72
12
73
8
74
0
42
0.000000001
43
0.0000000001
44
0.0000000001
40
0
40
0
40
0
40
0
40
1.9480613712269668
40
1.9480613712269668
40
3.9186603444663337
40
3.9186603444663337
40
5.746076248943111
40
5.746076248943111
40
5.746076248943111
40
5.746076248943111
10
-14.449523563741424
20
8.4460908264418411
30
0
10
-14.691763035118205
20
8.5278069369429943
30
0
10
-14.915144612177675
20
8.6547713273116411
30
0
10
-15.304974876091535
20
8.989090333593456
30
0
10
-15.466620809868308
20
9.1939492614016007
30
0
10
-15.69390465460099
20
9.6367587094463758
30
0
10
-15.76373703060028
20
9.8673342040141847
30
0
10
-15.791025719101681
20
10.105518932331307
30
0
0
SPLINE
5
231
100
AcDbEntity
8
0
100
AcDbSpline
70
0
71
3
72
10
73
6
74
0
42
0.000000001
43
0.0000000001
44
0.0000000001
40
0
40
0
40
0
40
0
40
0.070426091635682364
40
0.070426091635682364
40
0.17114706229796051
40
0.17114706229796051
40
0.17114706229796051
40
0.17114706229796051
10
-15.791025719101681
20
10.105518932331309
30
0
10
-15.785136399245411
20
10.098396050021428
30
0
10
-15.778640602365952
20
10.091795916963914
30
0
10
-15.761559455264953
20
10.077210109073476
30
0
10
-15.755602853021529
20
10.073542695793821
30
0
10
-15.748860819523813
20
10.069574514183046
30
0
0
SPLINE
5
232
100
AcDbEntity
8
0
100
AcDbSpline
70
0
71
3
72
12
73
8
74
0
42
0.000000001
43
0.0000000001
44
0.0000000001
40
0
40
0
40
0
40
0
40
0.017561849633962453
40
0.017561849633962453
40
0.028986049746424217
40
0.028986049746424217
40
0.040577746804294608
40
0.040577746804294608
40
0.040577746804294608
40
0.040577746804294608
10
-15.748860819484937
20
10.069574514261911
30
0
10
-15.746874600914689
20
10.06840549782212
30
0
10
-15.745138296593401
20
10.066869959583741
30
0
10
-15.742834318630573
20
10.063848335224893
30
0
10
-15.742081973971741
20
10.062547424340256
30
0
10
-15.740913875908612
20
10.059765266555123
30
0
10
-15.740509211291419
20
10.058296188394438
30
0
10
-15.740293812089639
20
10.056791235502802
30
0
0
SPLINE
5
233
100
AcDbEntity
8
0
100
AcDbSpline
70
0
71
3
72
14
73
10
74
0
42
0.000000001
43
0.0000000001
44
0.0000000001
40
0
40
0
40
0
40
0
40
1.9046182975324502
40
1.9046182975324502
40
3.8251425359881419
40
3.8251425359881419
40
5.0912463214405603
40
5.0912463214405603
40
6.3888422426743379
40
6.3888422426743379
40
6.3888422426743379
40
6.3888422426743379
10
-15.740293812128643
20
10.05679123549722
30
0
10
-15.704894795805197
20
9.8093607077548093
30
0
10
-15.622807277119758
20
9.5722192629023812
30
0
10
-15.371347297016227
20
9.1386460638782303
30
0
10
-15.203854781335439
20
8.9472833358683186
30
0
10
-14.873861216858588
20
8.6916089788901747
30
0
10
-14.730309830345313
20
8.6071557996341674
30
0
10
-14.421365924841629
20
8.4752261878120212
30
0
10
-14.257253219959766
20
8.4294365264951114
30
0
10
-14.088844694116169
20
8.4053429172501062
30
0
0
SPLINE
5
234
100
AcDbEntity
8
0
100
AcDbSpline
70
0
71
3
72
14
73
10
74
0
42
0.000000001
43
0.0000000001
44
0.0000000001
40
0
40
0
40
0
40
0
40
1.9046182872462984
40
1.9046182872462984
40
3.8251468002401294
40
3.8251468002401294
40
5.0912371139063737
40
5.0912371139063737
40
6.3888184848523171
40
6.3888184848523171
40
6.3888184848523171
40
6.3888184848523171
10
-14.088847826170987
20
12.259666759485849
30
0
10
-14.33627826490272
20
12.224267130536255
30
0
10
-14.573419570722834
20
12.142178984868
30
0
10
-15.00699274367657
20
11.890717815045221
30
0
10
-15.198355609503903
20
11.723224487732443
30
0
10
-15.454028459571282
20
11.393231260856401
30
0
10
-15.538480598769599
20
11.249681327410782
30
0
10
-15.670408821075075
20
10.940740812675836
30
0
10
-15.716198192018172
20
10.776630020643372
30
0
10
-15.740291915805198
20
10.608223438124925
30
0
0
SPLINE
5
235
100
AcDbEntity
8
0
100
AcDbSpline
70
0
71
3
72
12
73
8
74
0
42
0.000000001
43
0.0000000001
44
0.0000000001
40
0
40
0
40
0
40
0
40
0.016365467847826737
40
0.016365467847826737
40
0.028405582941123532
40
0.028405582941123532
40
0.04042576635355899
40
0.04042576635355899
40
0.04042576635355899
40
0.04042576635355899
10
-15.740291921714521
20
10.608223438963066
30
0
10
-15.74059415484553
20
10.606097111858283
30
0
10
-15.741310150965193
20
10.60403591732096
30
0
10
-15.743124167522181
20
10.600778592489432
30
0
10
-15.744072645040914
20
10.599495223533836
30
0
10
-15.746263871461716
20
10.597221189160601
30
0
10
-15.747506986619332
20
10.596229164228163
30
0
10
-15.748867326533158
20
10.595430268535482
30
0
0
SPLINE
5
236
100
AcDbEntity
8
0
100
AcDbSpline
70
0
71
3
72
10
73
6
74
0
42
0.000000001
43
0.0000000001
44
0.0000000001
40
0
40
0
40
0
40
0
40
0.071128365407818167
40
0.071128365407818167
40
0.14157526317571528
40
0.14157526317571528
40
0.14157526317571528
40
0.14157526317571528
10
-15.748867322979029
20
10.595430262486293
30
0
10
-15.756911552572385
20
10.590695077669066
30
0
10
-15.764523041680212
20
10.585268225250033
30
0
10
-15.778649478422873
20
10.573203250568625
30
0
10
-15.785145506981699
20
10.566601545664168
30
0
10
-15.791034861118478
20
10.559477038737203
30
0
0
SPLINE
5
237
100
AcDbEntity
8
0
100
AcDbSpline
70
0
71
3
72
14
73
10
74
0
42
0.000000001
43
0.0000000001
44
0.0000000001
40
0
40
0
40
0
40
0
40
1.9450915181603377
40
1.9450915181603377
40
3.9051813985972235
40
3.9051813985972235
40
5.3421804383977296
40
5.3421804383977296
40
6.8182872122194045
40
6.8182872122194045
40
6.8182872122194045
40
6.8182872122194045
10
-15.791034861118476
20
10.559477038737208
30
0
10
-15.762039929863441
20
10.813086291038875
30
0
10
-15.685156021637271
20
11.05743302245811
30
0
10
-15.441127460737142
20
11.507167571613923
30
0
10
-15.275839259309205
20
11.707284254536338
30
0
10
-14.932235042402798
20
11.989987065266829
30
0
10
-14.770651944997336
20
12.088465099928293
30
0
10
-14.419840390372851
20
12.23885134358007
30
0
10
-14.232405031412908
20
12.288423168307803
30
0
10
-14.040105640627152
20
12.310408687950359
30
0
0
SPLINE
5
238
100
AcDbEntity
8
0
100
AcDbSpline
70
0
71
3
72
10
73
6
74
0
42
0.000000001
43
0.0000000001
44
0.0000000001
40
0
40
0
40
0
40
0
40
0.070740162674271106
40
0.070740162674271106
40
0.17715348828829822
40
0.17715348828829822
40
0.17715348828829822
40
0.17715348828829822
10
-14.040105640627155
20
12.310408687950362
30
0
10
-14.047260875970938
20
12.30449381534701
30
0
10
-14.053888711306568
20
12.297966975631619
30
0
10
-14.068974477531405
20
12.280276150881038
30
0
10
-14.074284612241156
20
12.271253777503214
30
0
10
-14.076164784158419
20
12.268059204489269
30
0
0
SPLINE
5
239
100
AcDbEntity
8
0
100
AcDbSpline
70
0
71
3
72
12
73
8
74
0
42
0.000000001
43
0.0000000001
44
0.0000000001
40
0
40
0
40
0
40
0
40
0.016390223882136998
40
0.016390223882136998
40
0.028146824866633325
40
0.028146824866633325
40
0.039881803887645298
40
0.039881803887645298
40
0.039881803887645298
40
0.039881803887645298
10
-14.076164784158452
20
12.26805920448929
30
0
10
-14.077276382393915
20
12.266217757577055
30
0
10
-14.078744146318012
20
12.264597996236159
30
0
10
-14.08166132277665
20
12.262331034293132
30
0
10
-14.083001034795767
20
12.261536460382757
30
0
10
-14.085831443894769
20
12.260313437707103
30
0
10
-14.087323039578525
20
12.259883815817695
30
0
10
-14.088847826673385
20
12.259666763021364
30
0
0
SPLINE
5
240
100
AcDbEntity
8
0
100
AcDbSpline
70
0
71
3
72
12
73
8
74
0
42
0.000000001
43
0.0000000001
44
0.0000000001
40
0
40
0
40
0
40
0
40
0.017566672857559081
40
0.017566672857559081
40
0.028989677905655983
40
0.028989677905655983
40
0.040577841828754922
40
0.040577841828754922
40
0.040577841828754922
40
0.040577841828754922
10
-13.537419721465435
20
12.259667585087001
30
0
10
-13.539701820237623
20
12.259994092135992
30
0
10
-13.541892093226865
20
12.260754691992194
30
0
10
-13.545171968333468
20
12.262674156342516
30
0
10
-13.5463621941376
20
12.263591383485245
30
0
10
-13.54849959471068
20
12.265720336270116
30
0
10
-13.549431967987138
20
12.26692499168098
30
0
10
-13.550202866227959
20
12.268234771788352
30
0
0
SPLINE
5
241
100
AcDbEntity
8
0
100
AcDbSpline
70
0
71
3
72
10
73
6
74
0
42
0.000000001
43
0.0000000001
44
0.0000000001
40
0
40
0
40
0
40
0
40
0.071137606355649335
40
0.071137606355649335
40
0.14159180092896628
40
0.14159180092896628
40
0.14159180092896628
40
0.14159180092896628
10
-13.550202866225183
20
12.268234771789984
30
0
10
-13.55493810339545
20
12.276280377769096
30
0
10
-13.560365271147447
20
12.283893195053757
30
0
10
-13.572431057741136
20
12.298021785640618
30
0
10
-13.579033283599205
20
12.304518736605237
30
0
10
-13.586158434091143
20
12.310408805547741
30
0
0
SPLINE
5
242
100
AcDbEntity
8
0
100
AcDbSpline
70
0
71
3
72
14
73
10
74
0
42
0.000000001
43
0.0000000001
44
0.0000000001
40
0
40
0
40
0
40
0
40
1.9450872631590155
40
1.9450872631590155
40
3.9051738199877741
40
3.9051738199877741
40
5.3421745956412705
40
5.3421745956412705
40
6.8182821787585954
40
6.8182821787585954
40
6.8182821787585954
40
6.8182821787585954
10
-13.586158434091146
20
12.310408805547736
30
0
10
-13.332549735269113
20
12.281413949138905
30
0
10
-13.088203574624051
20
12.204530235036762
30
0
10
-12.638469865004625
20
11.960502213216047
30
0
10
-12.438353495872787
20
11.795214326232278
30
0
10
-12.155650637806431
20
11.451610425870891
30
0
10
-12.057172409028736
20
11.290027157878201
30
0
10
-11.906785930654035
20
10.939215350065572
30
0
10
-11.857214019036503
20
10.751779884426947
30
0
10
-11.835228482202572
20
10.559480394622362
30
0
0
SPLINE
5
243
100
AcDbEntity
8
0
100
AcDbSpline
70
0
71
3
72
10
73
6
74
0
42
0.000000001
43
0.0000000001
44
0.0000000001
40
0
40
0
40
0
40
0
40
0.070441630700519217
40
0.070441630700519217
40
0.14156588199619874
40
0.14156588199619874
40
0.14156588199619874
40
0.14156588199619874
10
-11.83522848220257
20
10.559480394622364
30
0
10
-11.841118520140075
20
10.566605329188333
30
0
10
-11.847615355140746
20
10.573207316247952
30
0
10
-11.861743694300642
20
10.585272678789318
30
0
10
-11.869356279900279
20
10.590699599959001
30
0
10
-11.877401643102433
20
10.595434699410799
30
0
0
SPLINE
5
244
100
AcDbEntity
8
0
100
AcDbSpline
70
0
71
3
72
12
73
8
74
0
42
0.000000001
43
0.0000000001
44
0.0000000001
40
0
40
0
40
0
40
0
40
0.017562784498145103
40
0.017562784498145103
40
0.028985580417191452
40
0.028985580417191452
40
0.040572445010252429
40
0.040572445010252429
40
0.040572445010252429
40
0.040572445010252429
10
-11.877401643098962
20
10.595434699415557
30
0
10
-11.879387939289979
20
10.596603825845845
30
0
10
-11.881124446743643
20
10.59813955878808
30
0
10
-11.883428526694043
20
10.601161002016276
30
0
10
-11.884180934065176
20
10.602461715281411
30
0
10
-11.885348912498099
20
10.605243005951444
30
0
10
-11.885753533411183
20
10.60671145539866
30
0
10
-11.885968764102858
20
10.608215770919237
30
0
0
SPLINE
5
245
100
AcDbEntity
8
0
100
AcDbSpline
70
0
71
3
72
14
73
10
74
0
42
0.000000001
43
0.0000000001
44
0.0000000001
40
0
40
0
40
0
40
0
40
1.3596654284768765
40
1.3596654284768765
40
2.3940858579519482
40
2.3940858579519482
40
3.0532698857609808
40
3.0532698857609808
40
3.910046825959391
40
3.910046825959391
40
3.910046825959391
40
3.910046825959391
10
-11.885968764062474
20
10.608215770923833
30
0
10
-11.911239229179081
20
10.784851040909579
30
0
10
-11.974003722315995
20
11.052246079635136
30
0
10
-12.27469705903208
20
11.551778016495676
30
0
10
-12.445500470959985
20
11.74058776940376
30
0
10
-12.775653282721562
20
11.987688301275004
30
0
10
-12.915545921630455
20
12.067629546868485
30
0
10
-13.256321338169213
20
12.209738166901072
30
0
10
-13.425318972868331
20
12.243629724249271
30
0
10
-13.53741972147051
20
12.259667585107296
30
0
0
LINE
5
246
100
AcDbEntity
8
0
100
AcDbLine
10
-14.550734393847655
20
7.5924185978953052
30
0
11
-14.550734393847655
21
8.2213550475819908
31
0
0
SPLINE
5
247
100
AcDbEntity
8
0
100
AcDbSpline
70
4
71
3
72
8
73
4
74
0
42
0.000000001
43
0.0000000001
44
0.0000000001
40
-1
40
-1
40
-1
40
-1
40
0
40
0
40
0
40
0
41
1
41
1
41
1
41
1
10
-14.550734393847655
20
8.2213550475819908
30
0
10
-14.550734393847655
20
8.2903908955637622
30
0
10
-14.494768970263671
20
8.3463553654734302
30
0
10
-14.425733122281899
20
8.3463553654734302
30
0
0
SPLINE
5
248
100
AcDbEntity
8
0
100
AcDbSpline
70
4
71
3
72
8
73
4
74
0
42
0.000000001
43
0.0000000001
44
0.0000000001
40
-1
40
-1
40
-1
40
-1
40
0
40
0
40
0
40
0
41
1
41
1
41
1
41
1
10
-14.425733122281899
20
8.3463553654734302
30
0
10
-14.35669727430013
20
8.3463553654734302
30
0
10
-14.300733122281901
20
8.2903908955637622
30
0
10
-14.300733122281901
20
8.2213550674502063
30
0
0
LINE
5
249
100
AcDbEntity
8
0
100
AcDbLine
10
-14.300733122281901
20
8.2213550674502063
30
0
11
-14.300733122281899
21
7.5924186177635189
31
0
0
LINE
5
250
100
AcDbEntity
8
0
100
AcDbLine
10
-14.300733122281899
20
7.5924186177635189
30
0
11
-13.325531197639972
21
7.5924186177635207
31
0
0
LINE
5
251
100
AcDbEntity
8
0
100
AcDbLine
10
-13.325531197639972
20
7.5924186177635207
30
0
11
-13.325531197639972
21
8.2213550674502063
31
0
0
SPLINE
5
252
100
AcDbEntity
8
0
100
AcDbSpline
70
4
71
3
72
8
73
4
74
0
42
0.000000001
43
0.0000000001
44
0.0000000001
40
-1
40
-1
40
-1
40
-1
40
0
40
0
40
0
40
0
41
1
41
1
41
1
41
1
10
-13.325531197639972
20
8.2213550674502063
30
0
10
-13.325531197639972
20
8.2903906968816123
30
0
10
-13.269567045621745
20
8.3463549681091305
30
0
10
-13.200531197639974
20
8.3463549681091305
30
0
0
SPLINE
5
253
100
AcDbEntity
8
0
100
AcDbSpline
70
4
71
3
72
8
73
4
74
0
42
0.000000001
43
0.0000000001
44
0.0000000001
40
-1
40
-1
40
-1
40
-1
40
0
40
0
40
0
40
0
41
1
41
1
41
1
41
1
10
-13.200531197639974
20
8.3463549681091305
30
0
10
-13.131495349658204
20
8.3463549681091305
30
0
10
-13.075531197639974
20
8.2903906968816123
30
0
10
-13.075531197639974
20
8.22135508731842
30
0
0
LINE
5
254
100
AcDbEntity
8
0
100
AcDbLine
10
-13.075531197639974
20
8.22135508731842
30
0
11
-13.075531197639974
21
7.5924186376317353
31
0
0
LINE
5
255
100
AcDbEntity
8
0
100
AcDbLine
10
-13.075531197639974
20
7.5924186376317353
30
0
11
-11.073045286588542
21
7.5924186376317335
31
0
0
LINE
5
256
100
AcDbEntity
8
0
100
AcDbLine
10
-11.073045286588542
20
7.5924186376317335
30
0
11
-11.07304528658854
21
13.072591470438638
31
0
0
LINE
5
257
100
AcDbEntity
8
0
100
AcDbLine
10
-11.07304528658854
20
13.072591470438638
30
0
11
-16.553217761767577
21
13.072591470438638
31
0
0
LINE
5
258
100
AcDbEntity
8
0
100
AcDbLine
10
-16.553217761767577
20
13.072591470438638
30
0
11
-16.553217761767577
21
7.5924186376317353
31
0
0
LINE
5
259
100
AcDbEntity
8
0
100
AcDbLine
10
-16.553217761767577
20
7.5924186376317353
30
0
11
-14.550734393847655
21
7.5924185978953052
31
0
0
SPLINE
5
260
100
AcDbEntity
8
0
100
AcDbSpline
70
4
71
3
72
8
73
4
74
0
42
0.000000001
43
0.0000000001
44
0.0000000001
40
-1
40
-1
40
-1
40
-1
40
0
40
0
40
0
40
0
41
1
41
1
41
1
41
1
10
-13.655651284309895
20
8.0590873924477915
30
0
10
-13.586991819791665
20
8.0638433265272784
30
0
10
-13.518581582161458
20
8.071707295138042
30
0
10
-13.450634194466145
20
8.0826550987943016
30
0
0
SPLINE
5
261
100
AcDbEntity
8
0
100
AcDbSpline
70
4
71
3
72
8
73
4
74
0
42
0.000000001
43
0.0000000001
44
0.0000000001
40
-1
40
-1
40
-1
40
-1
40
0
40
0
40
0
40
0
41
1
41
1
41
1
41
1
10
-13.450634194466145
20
8.0826550987943016
30
0
10
-13.426316770963542
20
8.0865730114364638
30
0
10
-13.404270363899739
20
8.0677945879681907
30
0
10
-13.404270363899739
20
8.0431644784990954
30
0
0
LINE
5
262
100
AcDbEntity
8
0
100
AcDbLine
10
-13.404270363899739
20
8.0431644784990954
30
0
11
-13.404270363899739
21
8.0344717669073731
31
0
0
SPLINE
5
263
100
AcDbEntity
8
0
100
AcDbSpline
70
4
71
3
72
8
73
4
74
0
42
0.000000001
43
0.0000000001
44
0.0000000001
40
-1
40
-1
40
-1
40
-1
40
0
40
0
40
0
40
0
41
1
41
1
41
1
41
1
10
-13.404270363899739
20
8.0344717669073749
30
0
10
-13.404270363899739
20
8.0148273872915912
30
0
10
-13.418534788541665
20
7.9980903036975866
30
0
10
-13.437931252571616
20
7.9949769742870336
30
0
0
SPLINE
5
264
100
AcDbEntity
8
0
100
AcDbSpline
70
4
71
3
72
8
73
4
74
0
42
0.000000001
43
0.0000000001
44
0.0000000001
40
-1
40
-1
40
-1
40
-1
40
0
40
0
40
0
40
0
41
1
41
1
41
1
41
1
10
-13.437931252571616
20
7.9949769742870336
30
0
10
-13.510084979785155
20
7.9833954143110928
30
0
10
-13.582735889208983
20
7.9751609332942968
30
0
10
-13.655651284309895
20
7.9702998913908019
30
0
0
LINE
5
265
100
AcDbEntity
8
0
100
AcDbLine
10
-13.655651284309895
20
7.9702998913908001
30
0
11
-13.970611764046222
21
7.9702998913908001
31
0
0
SPLINE
5
266
100
AcDbEntity
8
0
100
AcDbSpline
70
4
71
3
72
8
73
4
74
0
42
0.000000001
43
0.0000000001
44
0.0000000001
40
-1
40
-1
40
-1
40
-1
40
0
40
0
40
0
40
0
41
1
41
1
41
1
41
1
10
-13.970611764046222
20
7.9702998913908019
30
0
10
-14.043527159147136
20
7.9751609332942968
30
0
10
-14.116178068570962
20
7.9833955136521659
30
0
10
-14.188331795784505
20
7.9949769742870336
30
0
0
SPLINE
5
267
100
AcDbEntity
8
0
100
AcDbSpline
70
4
71
3
72
8
73
4
74
0
42
0.000000001
43
0.0000000001
44
0.0000000001
40
-1
40
-1
40
-1
40
-1
40
0
40
0
40
0
40
0
41
1
41
1
41
1
41
1
10
-14.188331795784505
20
7.9949769742870336
30
0
10
-14.207728259814452
20
7.9980903136316943
30
0
10
-14.221992684456378
20
8.0148273972256998
30
0
10
-14.221992684456378
20
8.0344717669073749
30
0
0
LINE
5
268
100
AcDbEntity
8
0
100
AcDbLine
10
-14.221992684456378
20
8.0344717669073731
30
0
11
-14.221992684456378
21
8.0431644784990954
31
0
0
SPLINE
5
269
100
AcDbEntity
8
0
100
AcDbSpline
70
4
71
3
72
8
73
4
74
0
42
0.000000001
43
0.0000000001
44
0.0000000001
40
-1
40
-1
40
-1
40
-1
40
0
40
0
40
0
40
0
41
1
41
1
41
1
41
1
10
-14.221992684456378
20
8.0431644784990954
30
0
10
-14.221992684456378
20
8.0677945780340838
30
0
10
-14.199945005826823
20
8.0865730114364638
30
0
10
-14.175628853889975
20
8.0826550987943016
30
0
0
SPLINE
5
270
100
AcDbEntity
8
0
100
AcDbSpline
70
4
71
3
72
8
73
4
74
0
42
0.000000001
43
0.0000000001
44
0.0000000001
40
-1
40
-1
40
-1
40
-1
40
0
40
0
40
0
40
0
41
1
41
1
41
1
41
1
10
-14.175628853889975
20
8.0826550987943016
30
0
10
-14.107681466194661
20
8.071707295138042
30
0
10
-14.039272500130208
20
8.0638433265272784
30
0
10
-13.970611764046222
20
8.0590873924477915
30
0
0
LINE
5
271
100
AcDbEntity
8
0
100
AcDbLine
10
-13.970611764046225
20
8.0590873924477915
30
0
11
-13.655651284309895
21
8.0590873924477915
31
0
0
SPLINE
5
272
100
AcDbEntity
8
0
100
AcDbSpline
70
4
71
3
72
8
73
4
74
0
42
0.000000001
43
0.0000000001
44
0.0000000001
40
0
40
0
40
0
40
0
40
1
40
1
40
1
40
1
41
1
41
1
41
1
41
1
10
-14.629474831673178
20
8.1683207618776965
30
0
10
-14.629476103238932
20
8.1400859621747337
30
0
10
-14.657938831103516
20
8.120738572635652
30
0
10
-14.684192849251303
20
8.1311270065689101
30
0
0
LINE
5
273
100
AcDbEntity
8
0
100
AcDbLine
10
-14.6841928492513
20
8.1311270065689101
30
0
11
-14.684191577685546
21
8.1311269867006946
31
0
0
SPLINE
5
274
100
AcDbEntity
8
0
100
AcDbSpline
70
4
71
3
72
8
73
4
74
0
42
0.000000001
43
0.0000000001
44
0.0000000001
40
0
40
0
40
0
40
0
40
1
40
1
40
1
40
1
41
1
41
1
41
1
41
1
10
-14.684191577685546
20
8.1311269867006946
30
0
10
-15.519530170214843
20
8.4616603123728442
30
0
10
-16.095819029264323
20
9.2365153697713218
30
0
10
-16.172044310026042
20
10.131631222127281
30
0
0
SPLINE
5
275
100
AcDbEntity
8
0
100
AcDbSpline
70
4
71
3
72
8
73
4
74
0
42
0.000000001
43
0.0000000001
44
0.0000000001
40
0
40
0
40
0
40
0
40
1
40
1
40
1
40
1
41
1
41
1
41
1
41
1
10
-16.172044310026042
20
10.131631222127281
30
0
10
-16.174031767301432
20
10.154977010447185
30
0
10
-16.155618223600261
20
10.175024992980958
30
0
10
-16.132188352994792
20
10.175024992980958
30
0
0
LINE
5
276
100
AcDbEntity
8
0
100
AcDbLine
10
-16.132188352994792
20
10.175024992980958
30
0
11
-16.123574766569011
21
10.175024992980958
31
0
0
SPLINE
5
277
100
AcDbEntity
8
0
100
AcDbSpline
70
4
71
3
72
8
73
4
74
0
42
0.000000001
43
0.0000000001
44
0.0000000001
40
0
40
0
40
0
40
0
40
1
40
1
40
1
40
1
41
1
41
1
41
1
41
1
10
-16.123574766569011
20
10.175024992980958
30
0
10
-16.102803739957682
20
10.175024992980958
30
0
10
-16.085488829069011
20
10.159126765289308
30
0
10
-16.083720081103515
20
10.138431237894695
30
0
0
SPLINE
5
278
100
AcDbEntity
8
0
100
AcDbSpline
70
4
71
3
72
8
73
4
74
0
42
0.000000001
43
0.0000000001
44
0.0000000001
40
0
40
0
40
0
40
0
40
1
40
1
40
1
40
1
41
1
41
1
41
1
41
1
10
-16.083720081103515
20
10.138431237894695
30
0
10
-16.010201963834636
20
9.2782875763956714
30
0
10
-15.456960234098307
20
8.5335296062215171
30
0
10
-14.654703967822266
20
8.2147259779357924
30
0
0
SPLINE
5
279
100
AcDbEntity
8
0
100
AcDbSpline
70
4
71
3
72
8
73
4
74
0
42
0.000000001
43
0.0000000001
44
0.0000000001
40
0
40
0
40
0
40
0
40
1
40
1
40
1
40
1
41
1
41
1
41
1
41
1
10
-14.654703967822266
20
8.2147259779357924
30
0
10
-14.639473153206382
20
8.2086736825688682
30
0
10
-14.629476103238932
20
8.1939429509226489
30
0
10
-14.629474831673178
20
8.1775540975316368
30
0
0
LINE
5
280
100
AcDbEntity
8
0
100
AcDbLine
10
-14.629474831673175
20
8.1775540975316368
30
0
11
-14.629474831673178
21
8.1683207618776965
31
0
0
SPLINE
5
281
100
AcDbEntity
8
0
100
AcDbSpline
70
4
71
3
72
8
73
4
74
0
42
0.000000001
43
0.0000000001
44
0.0000000001
40
-1
40
-1
40
-1
40
-1
40
0
40
0
40
0
40
0
41
1
41
1
41
1
41
1
10
-13.913631630989585
20
10.332505073903402
30
0
10
-13.913631630989585
20
10.388009713846843
30
0
10
-13.868637276741536
20
10.433005021769207
30
0
10
-13.813132159960938
20
10.433005021769207
30
0
0
SPLINE
5
282
100
AcDbEntity
8
0
100
AcDbSpline
70
4
71
3
72
8
73
4
74
0
42
0.000000001
43
0.0000000001
44
0.0000000001
40
-1
40
-1
40
-1
40
-1
40
0
40
0
40
0
40
0
41
1
41
1
41
1
41
1
10
-13.813132159960938
20
10.433005021769207
30
0
10
-13.757628314746094
20
10.433005021769207
30
0
10
-13.71263268893229
20
10.388009713846843
30
0
10
-13.71263268893229
20
10.332505073903402
30
0
0
SPLINE
5
283
100
AcDbEntity
8
0
100
AcDbSpline
70
4
71
3
72
8
73
4
74
0
42
0.000000001
43
0.0000000001
44
0.0000000001
40
-1
40
-1
40
-1
40
-1
40
0
40
0
40
0
40
0
41
1
41
1
41
1
41
1
10
-13.71263268893229
20
10.332505073903402
30
0
10
-13.71263268893229
20
10.277000433959961
30
0
10
-13.757628314746094
20
10.232005126037599
30
0
10
-13.813132159960938
20
10.232005126037599
30
0
0
SPLINE
5
284
100
AcDbEntity
8
0
100
AcDbSpline
70
4
71
3
72
8
73
4
74
0
42
0.000000001
43
0.0000000001
44
0.0000000001
40
-1
40
-1
40
-1
40
-1
40
0
40
0
40
0
40
0
41
1
41
1
41
1
41
1
10
-13.813132159960938
20
10.232005126037599
30
0
10
-13.868637276741536
20
10.232005126037599
30
0
10
-13.913631630989585
20
10.277000433959961
30
0
10
-13.913631630989585
20
10.332505073903402
30
0
0
LINE
5
285
100
AcDbEntity
8
0
100
AcDbLine
10
-16.132187081429038
20
10.489985313771568
30
0
11
-16.132188352994792
21
10.489985631663005
31
0
0
SPLINE
5
286
100
AcDbEntity
8
0
100
AcDbSpline
70
4
71
3
72
8
73
4
74
0
42
0.000000001
43
0.0000000001
44
0.0000000001
40
-1
40
-1
40
-1
40
-1
40
0
40
0
40
0
40
0
41
1
41
1
41
1
41
1
10
-16.132188352994792
20
10.489985631663005
30
0
10
-16.155618223600261
20
10.489985631663005
30
0
10
-16.174031767301432
20
10.510033614196779
30
0
10
-16.172044310026042
20
10.533379402516683
30
0
0
SPLINE
5
287
100
AcDbEntity
8
0
100
AcDbSpline
70
4
71
3
72
8
73
4
74
0
42
0.000000001
43
0.0000000001
44
0.0000000001
40
-1
40
-1
40
-1
40
-1
40
0
40
0
40
0
40
0
41
1
41
1
41
1
41
1
10
-16.172044310026042
20
10.533379402516683
30
0
10
-16.074210040820311
20
11.682270056762695
30
0
10
-15.162896665983073
20
12.593581524251302
30
0
10
-14.014006488574218
20
12.691415793457033
30
0
0
SPLINE
5
288
100
AcDbEntity
8
0
100
AcDbSpline
70
4
71
3
72
8
73
4
74
0
42
0.000000001
43
0.0000000001
44
0.0000000001
40
-1
40
-1
40
-1
40
-1
40
0
40
0
40
0
40
0
41
1
41
1
41
1
41
1
10
-14.014006488574218
20
12.691415793457033
30
0
10
-13.990661812874349
20
12.693403568623861
30
0
10
-13.970614307177733
20
12.674990660705566
30
0
10
-13.970613035611979
20
12.651560472208658
30
0
0
LINE
5
289
100
AcDbEntity
8
0
100
AcDbLine
10
-13.970613035611979
20
12.651560472208658
30
0
11
-13.970613035611979
21
12.642946885782878
31
0
0
SPLINE
5
290
100
AcDbEntity
8
0
100
AcDbSpline
70
4
71
3
72
8
73
4
74
0
42
0.000000001
43
0.0000000001
44
0.0000000001
40
-1
40
-1
40
-1
40
-1
40
0
40
0
40
0
40
0
41
1
41
1
41
1
41
1
10
-13.970613035611979
20
12.642946885782878
30
0
10
-13.970613035611979
20
12.622175541280111
30
0
10
-13.986510150683594
20
12.604860630391439
30
0
10
-14.007206154915364
20
12.603091564534504
30
0
0
SPLINE
5
291
100
AcDbEntity
8
0
100
AcDbSpline
70
4
71
3
72
8
73
4
74
0
42
0.000000001
43
0.0000000001
44
0.0000000001
40
-1
40
-1
40
-1
40
-1
40
0
40
0
40
0
40
0
41
1
41
1
41
1
41
1
10
-14.007206154915364
20
12.603091564534504
30
0
10
-15.112538847379559
20
12.508615500488281
30
0
10
-15.989242745491536
20
11.631911284484863
30
0
10
-16.083718809537761
20
10.52657906885783
30
0
0
SPLINE
5
292
100
AcDbEntity
8
0
100
AcDbSpline
70
4
71
3
72
8
73
4
74
0
42
0.000000001
43
0.0000000001
44
0.0000000001
40
-1
40
-1
40
-1
40
-1
40
0
40
0
40
0
40
0
41
1
41
1
41
1
41
1
10
-16.083718809537761
20
10.52657906885783
30
0
10
-16.085487557503257
20
10.505883541463218
30
0
10
-16.102802468391925
20
10.489985313771568
30
0
10
-16.123573495003257
20
10.489985313771568
30
0
0
LINE
5
293
100
AcDbEntity
8
0
100
AcDbLine
10
-16.123573495003257
20
10.489985313771568
30
0
11
-16.132187081429038
21
10.489985313771568
31
0
0
SPLINE
5
294
100
AcDbEntity
8
0
100
AcDbSpline
70
4
71
3
72
8
73
4
74
0
42
0.000000001
43
0.0000000001
44
0.0000000001
40
-1
40
-1
40
-1
40
-1
40
0
40
0
40
0
40
0
41
1
41
1
41
1
41
1
10
-13.655651284309895
20
12.65156015431722
30
0
10
-13.655651284309895
20
12.674990024922687
30
0
10
-13.63560377861328
20
12.693402932840982
30
0
10
-13.612257831347657
20
12.691415157674154
30
0
0
SPLINE
5
295
100
AcDbEntity
8
0
100
AcDbSpline
70
4
71
3
72
8
73
4
74
0
42
0.000000001
43
0.0000000001
44
0.0000000001
40
-1
40
-1
40
-1
40
-1
40
0
40
0
40
0
40
0
41
1
41
1
41
1
41
1
10
-13.612257831347657
20
12.691415157674154
30
0
10
-12.463367653938802
20
12.593580888468425
30
0
10
-11.552055550667317
20
11.682269420979818
30
0
10
-11.454221281461589
20
10.533378766733806
30
0
0
SPLINE
5
296
100
AcDbEntity
8
0
100
AcDbSpline
70
4
71
3
72
8
73
4
74
0
42
0.000000001
43
0.0000000001
44
0.0000000001
40
-1
40
-1
40
-1
40
-1
40
0
40
0
40
0
40
0
41
1
41
1
41
1
41
1
10
-11.454221281461589
20
10.533378766733806
30
0
10
-11.452232552620442
20
10.510032978413902
30
0
10
-11.470646096321614
20
10.489984995880128
30
0
10
-11.494075966927083
20
10.489984995880128
30
0
0
LINE
5
297
100
AcDbEntity
8
0
100
AcDbLine
10
-11.494075966927083
20
10.489984995880128
30
0
11
-11.50269082491862
21
10.489984995880128
31
0
0
SPLINE
5
298
100
AcDbEntity
8
0
100
AcDbSpline
70
4
71
3
72
8
73
4
74
0
42
0.000000001
43
0.0000000001
44
0.0000000001
40
-1
40
-1
40
-1
40
-1
40
0
40
0
40
0
40
0
41
1
41
1
41
1
41
1
10
-11.50269082491862
20
10.489984995880128
30
0
10
-11.523461851529948
20
10.489984995880128
30
0
10
-11.540776762418618
20
10.505883223571779
30
0
10
-11.542545510384114
20
10.526578750966392
30
0
0
SPLINE
5
299
100
AcDbEntity
8
0
100
AcDbSpline
70
4
71
3
72
8
73
4
74
0
42
0.000000001
43
0.0000000001
44
0.0000000001
40
-1
40
-1
40
-1
40
-1
40
0
40
0
40
0
40
0
41
1
41
1
41
1
41
1
10
-11.542545510384114
20
10.526578750966392
30
0
10
-11.637021574430339
20
11.631910966593425
30
0
10
-12.513725472542317
20
12.508615182596841
30
0
10
-13.619058165006511
20
12.603091246643066
30
0
0
SPLINE
5
300
100
AcDbEntity
8
0
100
AcDbSpline
70
4
71
3
72
8
73
4
74
0
42
0.000000001
43
0.0000000001
44
0.0000000001
40
-1
40
-1
40
-1
40
-1
40
0
40
0
40
0
40
0
41
1
41
1
41
1
41
1
10
-13.619058165006511
20
12.603091246643066
30
0
10
-13.639752897672526
20
12.604860312500001
30
0
10
-13.655651284309895
20
12.622175541280111
30
0
10
-13.655651284309895
20
12.642946567891437
30
0
0
LINE
5
301
100
AcDbEntity
8
0
100
AcDbLine
10
-13.655651284309895
20
12.642946567891437
30
0
11
-13.655651284309895
21
12.65156015431722
31
0
0
SPLINE
5
302
100
AcDbEntity
8
0
100
AcDbSpline
70
4
71
3
72
8
73
4
74
0
42
0.000000001
43
0.0000000001
44
0.0000000001
40
0
40
0
40
0
40
0
40
1
40
1
40
1
40
1
41
1
41
1
41
1
41
1
10
-11.494077238492839
20
10.175024992980958
30
0
10
-11.47064736788737
20
10.175024992980958
30
0
10
-11.452233824186198
20
10.154977010447185
30
0
10
-11.454222553027343
20
10.131631222127281
30
0
0
LINE
5
303
100
AcDbEntity
8
0
100
AcDbLine
10
-11.454222553027343
20
10.131631222127281
30
0
11
-11.454221281461589
21
10.131631222127281
31
0
0
SPLINE
5
304
100
AcDbEntity
8
0
100
AcDbSpline
70
4
71
3
72
8
73
4
74
0
42
0.000000001
43
0.0000000001
44
0.0000000001
40
0
40
0
40
0
40
0
40
1
40
1
40
1
40
1
41
1
41
1
41
1
41
1
10
-11.454221281461589
20
10.131631222127281
30
0
10
-11.530445290657552
20
9.2365155287170424
30
0
10
-12.106735421272786
20
8.4616602328999857
30
0
10
-12.942074013802083
20
8.1311270463053393
30
0
0
SPLINE
5
305
100
AcDbEntity
8
0
100
AcDbSpline
70
4
71
3
72
8
73
4
74
0
42
0.000000001
43
0.0000000001
44
0.0000000001
40
0
40
0
40
0
40
0
40
1
40
1
40
1
40
1
41
1
41
1
41
1
41
1
10
-12.942074013802083
20
8.1311270463053393
30
0
10
-12.968328031949868
20
8.1207386123720813
30
0
10
-12.996790759814452
20
8.1400860019111629
30
0
10
-12.996790759814452
20
8.1683208016141258
30
0
0
LINE
5
306
100
AcDbEntity
8
0
100
AcDbLine
10
-12.996790759814452
20
8.1683208016141258
30
0
11
-12.996790759814452
21
8.1775530842526756
31
0
0
SPLINE
5
307
100
AcDbEntity
8
0
100
AcDbSpline
70
4
71
3
72
8
73
4
74
0
42
0.000000001
43
0.0000000001
44
0.0000000001
40
0
40
0
40
0
40
0
40
1
40
1
40
1
40
1
41
1
41
1
41
1
41
1
10
-12.996790759814452
20
8.1775530842526756
30
0
10
-12.996790759814452
20
8.1939423548762012
30
0
10
-12.986793709847003
20
8.2086735037549339
30
0
10
-12.971562895231118
20
8.2147259978040061
30
0
0
SPLINE
5
308
100
AcDbEntity
8
0
100
AcDbSpline
70
4
71
3
72
8
73
4
74
0
42
0.000000001
43
0.0000000001
44
0.0000000001
40
0
40
0
40
0
40
0
40
1
40
1
40
1
40
1
41
1
41
1
41
1
41
1
10
-12.971562895231118
20
8.2147259978040061
30
0
10
-12.169305357389323
20
8.5335295267486586
30
0
10
-11.616064899218751
20
9.2782874174499526
30
0
10
-11.54254678194987
20
10.138431237894695
30
0
0
SPLINE
5
309
100
AcDbEntity
8
0
100
AcDbSpline
70
4
71
3
72
8
73
4
74
0
42
0.000000001
43
0.0000000001
44
0.0000000001
40
0
40
0
40
0
40
0
40
1
40
1
40
1
40
1
41
1
41
1
41
1
41
1
10
-11.54254678194987
20
10.138431237894695
30
0
10
-11.540778033984374
20
10.159126765289308
30
0
10
-11.523463123095704
20
10.175024992980958
30
0
10
-11.502692096484376
20
10.175024992980958
30
0
0
LINE
5
310
100
AcDbEntity
8
0
100
AcDbLine
10
-11.502692096484376
20
10.175024992980958
30
0
11
-11.494077238492839
21
10.175024992980958
31
0
0
ARC
5
311
100
AcDbEntity
8
0
100
AcDbCircle
10
-15.213136228971354
20
8.0100801157538104
30
0
40
0.02500000000000048
210
-0
220
0
230
1
100
AcDbArc
50
-89.999999999995936
51
180
0
LINE
5
312
100
AcDbEntity
8
0
100
AcDbLine
10
-15.213136228971353
20
7.9850801157538092
30
0
11
-15.213136228971354
21
7.8207644788010926
31
0
0
SPLINE
5
313
100
AcDbEntity
8
0
100
AcDbSpline
70
4
71
3
72
8
73
4
74
0
42
0.000000001
43
0.0000000001
44
0.0000000001
40
0
40
0
40
0
40
0
40
1
40
1
40
1
40
1
41
1
41
1
41
1
41
1
10
-15.213136228971354
20
7.8207644788010926
30
0
10
-15.195597522509765
20
7.8207643794600177
30
0
10
-15.186817360970053
20
7.7995606231276193
30
0
10
-15.199217670214844
20
7.7871604132239023
30
0
0
SPLINE
5
314
100
AcDbEntity
8
0
100
AcDbSpline
70
4
71
3
72
8
73
4
74
0
42
0.000000001
43
0.0000000001
44
0.0000000001
40
0
40
0
40
0
40
0
40
1
40
1
40
1
40
1
41
1
41
1
41
1
41
1
10
-15.199217670214844
20
7.7871604132239023
30
0
10
-15.21161925102539
20
7.7747603125953688
30
0
10
-15.232821338427735
20
7.7835412489954638
30
0
10
-15.232821338427735
20
7.8010801044686637
30
0
0
LINE
5
315
100
AcDbEntity
8
0
100
AcDbLine
10
-15.232821338427737
20
7.8010801044686637
30
0
11
-15.443451119514975
21
7.8010801044686637
31
0
0
SPLINE
5
316
100
AcDbEntity
8
0
100
AcDbSpline
70
4
71
3
72
8
73
4
74
0
42
0.000000001
43
0.0000000001
44
0.0000000001
40
0
40
0
40
0
40
0
40
1
40
1
40
1
40
1
41
1
41
1
41
1
41
1
10
-15.443451119514975
20
7.8010801044686637
30
0
10
-15.443451119514975
20
7.7835412489954638
30
0
10
-15.464654478483073
20
7.7747603125953688
30
0
10
-15.477054787727864
20
7.7871605224990859
30
0
0
SPLINE
5
317
100
AcDbEntity
8
0
100
AcDbSpline
70
4
71
3
72
8
73
4
74
0
42
0.000000001
43
0.0000000001
44
0.0000000001
40
0
40
0
40
0
40
0
40
1
40
1
40
1
40
1
41
1
41
1
41
1
41
1
10
-15.477054787727864
20
7.7871605224990859
30
0
10
-15.489455096972657
20
7.7995606231276193
30
0
10
-15.480674935432942
20
7.8207644788010926
30
0
10
-15.463136228971354
20
7.8207644788010926
30
0
0
LINE
5
318
100
AcDbEntity
8
0
100
AcDbLine
10
-15.463136228971351
20
7.8207644788010926
30
0
11
-15.4631349985891
21
7.9850801157545099
31
0
0
ARC
5
319
100
AcDbEntity
8
0
100
AcDbCircle
10
-15.463134811391113
20
8.0100801157538086
30
0
40
0.024999999999999082
210
0
220
0
230
1
100
AcDbArc
50
0
51
269.99957097381673
0
LINE
5
320
100
AcDbEntity
8
0
100
AcDbLine
10
-15.438134811391114
20
8.0100801157538086
30
0
11
-15.238136228971356
21
8.0100801157538086
31
0
0
ARC
5
321
100
AcDbEntity
8
0
100
AcDbCircle
10
-12.413127944936038
20
8.0100801157538086
30
0
40
0.024999999999999082
210
0
220
-0
230
1
100
AcDbArc
50
0
51
269.99957097382077
0
LINE
5
322
100
AcDbEntity
8
0
100
AcDbLine
10
-12.388127944936038
20
8.0100801157538104
30
0
11
-12.188129362516275
21
8.0100801157538104
31
0
0
ARC
5
323
100
AcDbEntity
8
0
100
AcDbCircle
10
-12.163129362516276
20
8.0100801157538104
30
0
40
0.024999999999999082
210
-0
220
0
230
1
100
AcDbArc
50
-90
51
180
0
LINE
5
324
100
AcDbEntity
8
0
100
AcDbLine
10
-12.163129362516276
20
7.9850801157538109
30
0
11
-12.163129362516276
21
7.8207644788010926
31
0
0
SPLINE
5
325
100
AcDbEntity
8
0
100
AcDbSpline
70
4
71
3
72
8
73
4
74
0
42
0.000000001
43
0.0000000001
44
0.0000000001
40
0
40
0
40
0
40
0
40
1
40
1
40
1
40
1
41
1
41
1
41
1
41
1
10
-12.163129362516276
20
7.8207644788010926
30
0
10
-12.145590656054686
20
7.8207644788010926
30
0
10
-12.136810494514974
20
7.7995606231276193
30
0
10
-12.149210803759765
20
7.7871605224990859
30
0
0
SPLINE
5
326
100
AcDbEntity
8
0
100
AcDbSpline
70
4
71
3
72
8
73
4
74
0
42
0.000000001
43
0.0000000001
44
0.0000000001
40
0
40
0
40
0
40
0
40
1
40
1
40
1
40
1
41
1
41
1
41
1
41
1
10
-12.149210803759765
20
7.7871605224990859
30
0
10
-12.161612384570311
20
7.7747603125953688
30
0
10
-12.182814471972655
20
7.7835412489954638
30
0
10
-12.182814471972655
20
7.8010801044686637
30
0
0
LINE
5
327
100
AcDbEntity
8
0
100
AcDbLine
10
-12.182814471972655
20
7.8010801044686637
30
0
11
-12.393444253059895
21
7.8010801044686637
31
0
0
SPLINE
5
328
100
AcDbEntity
8
0
100
AcDbSpline
70
4
71
3
72
8
73
4
74
0
42
0.000000001
43
0.0000000001
44
0.0000000001
40
0
40
0
40
0
40
0
40
1
40
1
40
1
40
1
41
1
41
1
41
1
41
1
10
-12.393444253059895
20
7.8010801044686637
30
0
10
-12.393442981494141
20
7.7835412489954638
30
0
10
-12.414646340462239
20
7.7747603125953688
30
0
10
-12.427047921272786
20
7.7871604132239023
30
0
0
SPLINE
5
329
100
AcDbEntity
8
0
100
AcDbSpline
70
4
71
3
72
8
73
4
74
0
42
0.000000001
43
0.0000000001
44
0.0000000001
40
0
40
0
40
0
40
0
40
1
40
1
40
1
40
1
41
1
41
1
41
1
41
1
10
-12.427047921272786
20
7.7871604132239023
30
0
10
-12.439448230517577
20
7.7995606231276193
30
0
10
-12.43066934054362
20
7.8207643695259099
30
0
10
-12.413129362516276
20
7.8207644788010926
30
0
0
LINE
5
330
100
AcDbEntity
8
0
100
AcDbLine
10
-12.413129362516276
20
7.8207644788010926
30
0
11
-12.413128132134023
21
7.9850801157545099
31
0
0
ARC
5
331
100
AcDbEntity
8
0
100
AcDbCircle
10
-12.16312809095052
20
12.654930121459964
30
0
40
0.02500000000000048
210
0
220
0
230
1
100
AcDbArc
50
-180
51
90
0
LINE
5
332
100
AcDbEntity
8
0
100
AcDbLine
10
-12.188128090950521
20
12.654930121459961
30
0
11
-12.38812809095052
21
12.654930121459961
31
0
0
ARC
5
333
100
AcDbEntity
8
0
100
AcDbCircle
10
-12.41312809095052
20
12.654930121459964
30
0
40
0.024999999999996282
210
0
220
-0
230
1
100
AcDbArc
50
90
51
360
0
LINE
5
334
100
AcDbEntity
8
0
100
AcDbLine
10
-12.41312809095052
20
12.679930121459961
30
0
11
-12.41312809095052
21
12.844244645792644
31
0
0
SPLINE
5
335
100
AcDbEntity
8
0
100
AcDbSpline
70
4
71
3
72
8
73
4
74
0
42
0.000000001
43
0.0000000001
44
0.0000000001
40
0
40
0
40
0
40
0
40
1
40
1
40
1
40
1
41
1
41
1
41
1
41
1
10
-12.41312809095052
20
12.844244645792644
30
0
10
-12.430666797412108
20
12.844244645792644
30
0
10
-12.439446958951823
20
12.865448004760742
30
0
10
-12.42704664970703
20
12.877848314005533
30
0
0
SPLINE
5
336
100
AcDbEntity
8
0
100
AcDbSpline
70
4
71
3
72
8
73
4
74
0
42
0.000000001
43
0.0000000001
44
0.0000000001
40
0
40
0
40
0
40
0
40
1
40
1
40
1
40
1
41
1
41
1
41
1
41
1
10
-12.42704664970703
20
12.877848314005533
30
0
10
-12.414646340462239
20
12.890248623250326
30
0
10
-12.393442981494141
20
12.88146877960205
30
0
10
-12.393442981494141
20
12.863930073140461
30
0
0
LINE
5
337
100
AcDbEntity
8
0
100
AcDbLine
10
-12.393442981494143
20
12.863930073140459
30
0
11
-12.182813200406901
21
12.863930073140461
31
0
0
SPLINE
5
338
100
AcDbEntity
8
0
100
AcDbSpline
70
4
71
3
72
8
73
4
74
0
42
0.000000001
43
0.0000000001
44
0.0000000001
40
0
40
0
40
0
40
0
40
1
40
1
40
1
40
1
41
1
41
1
41
1
41
1
10
-12.182813200406901
20
12.863930073140461
30
0
10
-12.182813200406901
20
12.88146877960205
30
0
10
-12.161608569873046
20
12.890248623250326
30
0
10
-12.149209532194009
20
12.877848314005533
30
0
0
SPLINE
5
339
100
AcDbEntity
8
0
100
AcDbSpline
70
4
71
3
72
8
73
4
74
0
42
0.000000001
43
0.0000000001
44
0.0000000001
40
0
40
0
40
0
40
0
40
1
40
1
40
1
40
1
41
1
41
1
41
1
41
1
10
-12.149209532194009
20
12.877848314005533
30
0
10
-12.136809222949218
20
12.865448004760742
30
0
10
-12.145589384488931
20
12.844244645792644
30
0
10
-12.16312809095052
20
12.844244645792644
30
0
0
LINE
5
340
100
AcDbEntity
8
0
100
AcDbLine
10
-12.163128090950522
20
12.844244645792644
30
0
11
-12.16312809095052
21
12.679930121459966
31
0
0
ARC
5
341
100
AcDbEntity
8
0
100
AcDbCircle
10
-15.463133685839846
20
12.654930121459961
30
0
40
0.024999999999999082
210
0
220
-0
230
1
100
AcDbArc
50
-270
51
0
0
LINE
5
342
100
AcDbEntity
8
0
100
AcDbLine
10
-15.463133685839846
20
12.679930121459961
30
0
11
-15.463133685839844
21
12.844244645792644
31
0
0
SPLINE
5
343
100
AcDbEntity
8
0
100
AcDbSpline
70
4
71
3
72
8
73
4
74
0
42
0.000000001
43
0.0000000001
44
0.0000000001
40
0
40
0
40
0
40
0
40
1
40
1
40
1
40
1
41
1
41
1
41
1
41
1
10
-15.463133685839844
20
12.844244645792644
30
0
10
-15.480672392301431
20
12.844244645792644
30
0
10
-15.489452553841145
20
12.865448004760742
30
0
10
-15.477052244596354
20
12.877848314005533
30
0
0
SPLINE
5
344
100
AcDbEntity
8
0
100
AcDbSpline
70
4
71
3
72
8
73
4
74
0
42
0.000000001
43
0.0000000001
44
0.0000000001
40
0
40
0
40
0
40
0
40
1
40
1
40
1
40
1
41
1
41
1
41
1
41
1
10
-15.477052244596354
20
12.877848314005533
30
0
10
-15.464651935351563
20
12.890248623250326
30
0
10
-15.443448576383464
20
12.88146877960205
30
0
10
-15.443448576383464
20
12.863930073140461
30
0
0
LINE
5
345
100
AcDbEntity
8
0
100
AcDbLine
10
-15.443448576383464
20
12.863930073140459
30
0
11
-15.232818795296224
21
12.863930073140461
31
0
0
SPLINE
5
346
100
AcDbEntity
8
0
100
AcDbSpline
70
4
71
3
72
8
73
4
74
0
42
0.000000001
43
0.0000000001
44
0.0000000001
40
0
40
0
40
0
40
0
40
1
40
1
40
1
40
1
41
1
41
1
41
1
41
1
10
-15.232818795296224
20
12.863930073140461
30
0
10
-15.232817523730468
20
12.88146877960205
30
0
10
-15.21161416476237
20
12.890248623250326
30
0
10
-15.199215127083335
20
12.877848314005533
30
0
0
SPLINE
5
347
100
AcDbEntity
8
0
100
AcDbSpline
70
4
71
3
72
8
73
4
74
0
42
0.000000001
43
0.0000000001
44
0.0000000001
40
0
40
0
40
0
40
0
40
1
40
1
40
1
40
1
41
1
41
1
41
1
41
1
10
-15.199215127083335
20
12.877848314005533
30
0
10
-15.186814817838542
20
12.865448004760742
30
0
10
-15.195594979378255
20
12.844244645792644
30
0
10
-15.213133685839844
20
12.844244645792644
30
0
0
LINE
5
348
100
AcDbEntity
8
0
100
AcDbLine
10
-15.213133685839848
20
12.844244645792644
30
0
11
-15.213134916222474
21
12.679930121459259
31
0
0
ARC
5
349
100
AcDbEntity
8
0
100
AcDbCircle
10
-15.213135103421784
20
12.654930121459961
30
0
40
0.024999999999999082
210
0
220
0
230
1
100
AcDbArc
50
-180
51
89.999570970783736
0
LINE
5
350
100
AcDbEntity
8
0
100
AcDbLine
10
-15.238135103421783
20
12.654930121459961
30
0
11
-15.438133685839848
21
12.654930121459961
31
0
0
LWPOLYLINE
5
351
100
AcDbEntity
8
0
100
AcDbPolyline
90
8
70
1
43
0.0
10
-13.91313215996094
20
8.498454060910543
42
-2.4142135623732859
10
-13.938132159960936
20
8.5234540609105416
10
-13.938132159960936
20
8.6824540523274738
42
-2.4142135623732859
10
-13.913132159960938
20
8.7074540523274759
10
-13.713130888395186
20
8.7074540523274759
42
-2.4142135623729994
10
-13.688130888395181
20
8.6824540523274756
10
-13.688130888395184
20
8.5234540609105363
42
-2.4142135623729994
10
-13.713130888395179
20
8.4984540609105412
0
ENDSEC
0
SECTION
2
OBJECTS
0
DICTIONARY
5
C
100
AcDbDictionary
3
ACAD_GROUP
350
D
3
ACAD_MLINESTYLE
350
17
0
DICTIONARY
5
D
100
AcDbDictionary
0
DICTIONARY
5
1A
330
C
100
AcDbDictionary
0
DICTIONARY
5
17
100
AcDbDictionary
0
ENDSEC
0
EOF
