0
SECTION
2
HEADER
9
$INSUNITS
70
1
9
$ACADVER
1
AC1014
9
$HANDSEED
5
FFFF
0
ENDSEC
0
SECTION
2
TABLES
0
TABLE
2
VPORT
5
8
100
AcDbSymbolTable
0
ENDTAB
0
TABLE
2
LTYPE
5
5
100
AcDbSymbolTable
0
LTYPE
5
14
100
AcDbSymbolTableRecord
100
AcDbLinetypeTableRecord
2
BYBLOCK
70
0
0
LTYPE
5
15
100
AcDbSymbolTableRecord
100
AcDbLinetypeTableRecord
2
BYLAYER
70
0
0
ENDTAB
0
TABLE
2
LAYER
5
2
100
AcDbSymbolTable
70
2
0
LAYER
5
50
100
AcDbSymbolTableRecord
100
AcDbLayerTableRecord
2
0
70
0
6
CONTINUOUS
0
ENDTAB
0
TABLE
2
STYLE
5
3
100
AcDbSymbolTable
70
1
0
STYLE
5
11
100
AcDbSymbolTableRecord
100
AcDbTextStyleTableRecord
2
STANDARD
70
0
0
ENDTAB
0
TABLE
2
VIEW
5
6
100
AcDbSymbolTable
70
0
0
ENDTAB
0
TABLE
2
UCS
5
7
100
AcDbSymbolTable
70
0
0
ENDTAB
0
TABLE
2
APPID
5
9
100
AcDbSymbolTable
70
2
0
APPID
5
12
100
AcDbSymbolTableRecord
100
AcDbRegAppTableRecord
2
ACAD
70
0
0
ENDTAB
0
TABLE
2
DIMSTYLE
5
A
100
AcDbSymbolTable
70
1
0
ENDTAB
0
TABLE
2
BLOCK_RECORD
5
1
100
AcDbSymbolTable
70
1
0
BLOCK_RECORD
5
1F
100
AcDbSymbolTableRecord
100
AcDbBlockTableRecord
2
*MODEL_SPACE
0
BLOCK_RECORD
5
1B
100
AcDbSymbolTableRecord
100
AcDbBlockTableRecord
2
*PAPER_SPACE
0
ENDTAB
0
ENDSEC
0
SECTION
2
BLOCKS
0
BLOCK
5
20
100
AcDbEntity
100
AcDbBlockBegin
2
*MODEL_SPACE
0
ENDBLK
5
21
100
AcDbEntity
100
AcDbBlockEnd
0
BLOCK
5
1C
100
AcDbEntity
100
AcDbBlockBegin
2
*PAPER_SPACE
0
ENDBLK
5
1D
100
AcDbEntity
100
AcDbBlockEnd
0
ENDSEC
0
SECTION
2
ENTITIES
0
CIRCLE
5
100
100
AcDbEntity
8
0
100
AcDbCircle
10
-3.6796418128000723
20
0.93799204516974333
30
0
40
0.039370078740157341
210
5.3455294201847201e-51
220
9.5023913101585654e-82
230
1
0
CIRCLE
5
101
100
AcDbEntity
8
0
100
AcDbCircle
10
-3.6796418128000723
20
0.64271645461856208
30
0
40
0.039370078740157341
210
5.3455294201847201e-51
220
9.5023913101585654e-82
230
1
0
CIRCLE
5
102
100
AcDbEntity
8
0
100
AcDbCircle
10
-3.6796418128000723
20
0.83956684831934958
30
0
40
0.039370078740157341
210
5.3455294201847201e-51
220
9.5023913101585654e-82
230
1
0
CIRCLE
5
103
100
AcDbEntity
8
0
100
AcDbCircle
10
-3.6796418128000723
20
0.74114165146895594
30
0
40
0.039370078740157341
210
5.3455294201847201e-51
220
9.5023913101585654e-82
230
1
0
LINE
5
104
100
AcDbEntity
8
0
100
AcDbLine
10
-2.7005071134137233
20
0.6005186076463932
30
0
11
-2.6684375003783147
21
0.60051860764638976
31
2.7318479936642714e-18
0
LINE
5
105
100
AcDbEntity
8
0
100
AcDbLine
10
-2.6684375003783147
20
0.60051860764638976
30
2.7318479936642714e-18
11
-2.6684375003783205
21
0.54542675090577242
31
1.7483827159451278e-16
0
ARC
5
106
100
AcDbEntity
8
0
100
AcDbCircle
10
-2.6834375003783211
20
0.54542675090577408
30
1.7483827159451283e-16
40
0.015000000000000076
210
-8.8852344322656477e-31
220
-5.8578519535485124e-30
230
1
100
AcDbArc
50
232.26074654226335
51
360
0
ARC
5
107
100
AcDbEntity
8
0
100
AcDbCircle
10
-2.7500000003783187
20
0.45942677361653139
30
3.4967654318902565e-16
40
0.093749999999999889
210
1.0963869433748797e-15
220
1.5096996909031419e-15
230
1
100
AcDbArc
50
52.260746542261259
51
58.134696500862034
0
LINE
5
108
100
AcDbEntity
8
0
100
AcDbLine
10
-2.7005071134137237
20
0.53904785524639753
30
3.4894861498470673e-16
11
-2.7005071134137233
21
0.53267744484978996
31
-1.7483829476687643e-16
0
SPLINE
5
109
100
AcDbEntity
8
0
100
AcDbSpline
70
0
71
3
72
12
73
8
74
0
42
0.000000001
43
0.0000000001
44
0.0000000001
40
0.026102450338047971
40
0.026102450338047971
40
0.026102450338047971
40
0.026102450338047971
40
0.087922864736277195
40
0.087922864736277195
40
0.13970032050302794
40
0.13970032050302794
40
0.16186476461044719
40
0.16186476461044719
40
0.16186476461044719
40
0.16186476461044719
10
-2.6680390337398463
20
0.49137786255487825
30
-1.7483827159451283e-16
10
-2.6709273892787921
20
0.49892514152929246
30
0
10
-2.674840432768868
20
0.50605739249989712
30
3.4967654318902565e-16
10
-2.6837322829091708
20
0.51802340322581486
30
1.7483827159451283e-16
10
-2.688398610366598
20
0.52299374082917038
30
0
10
-2.6958068119361736
20
0.52926132532732617
30
1.7483827159451283e-16
10
-2.6981167201336631
20
0.53102822338930866
30
0
10
-2.7005071134117364
20
0.5326774448526701
30
0
0
LINE
5
110
100
AcDbEntity
8
0
100
AcDbLine
10
-2.6680390337398463
20
0.49137786255487825
30
-1.7483827159451283e-16
11
-2.5409645673073071
21
0.49137786255483884
31
1.7483827159451283e-16
0
LINE
5
111
100
AcDbEntity
8
0
100
AcDbLine
10
-2.5409645673073071
20
0.49137786255483884
30
1.7483827159451283e-16
11
-2.5409645673073062
21
0.93590094711686678
31
3.4967654318902565e-16
0
ARC
5
112
100
AcDbEntity
8
0
100
AcDbCircle
10
-2.8756102365986442
20
0.93590094711686711
30
1.7483827159451283e-16
40
0.33464566929133804
210
-5.2245789394125094e-16
220
-4.4592198509991892e-18
230
1
100
AcDbArc
50
0
51
85.000000000000043
0
LINE
5
113
100
AcDbEntity
8
0
100
AcDbLine
10
-2.8464439447342706
20
1.2692731886042621
30
1.7634249044804313e-16
11
-3.7781758129840215
21
1.350789164521945
31
3.4947656253425903e-16
0
SPLINE
5
114
100
AcDbEntity
8
0
100
AcDbSpline
70
0
71
3
72
16
73
12
74
0
42
0.000000001
43
0.0000000001
44
0.0000000001
40
0.44017479503424184
40
0.44017479503424184
40
0.44017479503424184
40
0.44017479503424184
40
0.51106622415043224
40
0.51106622415043224
40
0.59622823827657589
40
0.59622823827657589
40
0.68137285418490401
40
0.68137285418490401
40
0.76651747009323212
40
0.76651747009323212
40
0.83311328866791368
40
0.83311328866791368
40
0.83311328866791368
40
0.83311328866791368
10
-3.8074149681220897
20
1.211045261587929
30
0
10
-3.7986459365977523
20
1.2153503930267311
30
-3.4967654318902565e-16
10
-3.78986899156427
20
1.2217206457347018
30
3.4967654318902565e-16
10
-3.7753860835743431
20
1.2362000598290865
30
-3.4967654318902565e-16
10
-3.7679335930067213
20
1.2473501471196939
30
3.4967654318902565e-16
10
-3.7593789265827788
20
1.2679981013066635
30
0
10
-3.7567622873664304
20
1.2811489103358986
30
3.4967654318902565e-16
10
-3.7567622873664304
20
1.3034965785533075
30
3.4967654318902565e-16
10
-3.7593789265827788
20
1.3166473875825426
30
0
10
-3.7670009950821872
20
1.3350443785797919
30
0
10
-3.7721858820878351
20
1.3437078874883417
30
0
10
-3.7781758130378527
20
1.3507891644772407
30
-3.4967654318902565e-16
0
LINE
5
115
100
AcDbEntity
8
0
100
AcDbLine
10
-3.8074149681220897
20
1.211045261587929
30
0
11
-3.8074149681220897
21
1.0612540082520845
31
3.496765431890256e-16
0
ARC
5
116
100
AcDbEntity
8
0
100
AcDbCircle
10
-3.8271000074921679
20
1.0612540082520843
30
0
40
0.019685039370078667
210
-1.1102230246251565e-16
220
-1.8083350168438755e-32
230
1
100
AcDbArc
50
-90
51
0
0
LINE
5
117
100
AcDbEntity
8
0
100
AcDbLine
10
-3.8271000074921679
20
1.0415689688820056
30
-3.5597146000863559e-34
11
-3.8664700862323254
21
1.0415689688820058
31
5.4636959873285258e-18
0
ARC
5
118
100
AcDbEntity
8
0
100
AcDbCircle
10
-3.8664700862323254
20
1.0612540082520843
30
0
40
0.019685039370079017
210
-1.1102230246251413e-16
220
-2.3111159332647077e-33
230
1
100
AcDbArc
50
180
51
270
0
LINE
5
119
100
AcDbEntity
8
0
100
AcDbLine
10
-3.8861551256024041
20
1.0612540082520843
30
-2.1854783949314113e-18
11
-3.8861551256024041
21
1.2105014250726376
31
-3.496765431890256e-16
0
SPLINE
5
120
100
AcDbEntity
8
0
100
AcDbSpline
70
0
71
3
72
17
73
13
74
0
42
0.000000001
43
0.0000000001
44
0.0000000001
40
-0.098642275554947728
40
-0.098642275554947728
40
-0.098642275554947728
40
-0.098642275554947728
40
-0.085145304849727488
40
-0.085145304849727488
40
0
40
0
40
0
40
0.085145304849727516
40
0.085145304849727516
40
0.17030645200088229
40
0.17030645200088229
40
0.24423568676405427
40
0.24423568676405427
40
0.24423568676405427
40
0.24423568676405427
10
-3.9288045855934666
20
1.3319388861768868
30
0
10
-3.9296167634499275
20
1.3302701816783991
30
-3.4967654318902565e-16
10
-3.9303624244712454
20
1.328607016353929
30
-3.4967654318902565e-16
10
-3.9353172261296434
20
1.3166476000138227
30
-3.4967654318902565e-16
10
-3.9379338080626578
20
1.3034966689655647
30
3.4967654318902565e-16
10
-3.9379338080626578
20
1.292322744444603
30
3.4967654318902565e-16
10
-3.9379338080626578
20
1.2811488199236416
30
3.4967654318902565e-16
10
-3.9353172261296434
20
1.2679978888753833
30
-3.4967654318902565e-16
10
-3.9267627327741064
20
1.2473498882749683
30
0
10
-3.9193104533655743
20
1.2361998240714009
30
0
10
-3.9045458323156716
20
1.2214384904819617
30
0
10
-3.8952817920628733
20
1.2148267723898218
30
-3.4967654318902565e-16
10
-3.8861551256024041
20
1.2105014250726376
30
-3.4967654318902565e-16
0
SPLINE
5
121
100
AcDbEntity
8
0
100
AcDbSpline
70
0
71
3
72
18
73
14
74
0
42
0.000000001
43
0.0000000001
44
0.0000000001
40
0.074061493928429867
40
0.074061493928429867
40
0.074061493928429867
40
0.074061493928429867
40
0.092582396694919078
40
0.092582396694919078
40
0.1110998935929864
40
0.1110998935929864
40
0.12961322851800433
40
0.12961322851800433
40
0.14812310295639425
40
0.14812310295639425
40
0.16663297739478372
40
0.16663297739478372
40
0.16956707725655695
40
0.16956707725655695
40
0.16956707725655695
40
0.16956707725655695
10
-3.9465121812790702
20
1.3602361302713752
30
3.4967654318902565e-16
10
-3.9440816166115527
20
1.3602361302713752
30
-3.4967654318902565e-16
10
-3.9412209530294136
20
1.3596672611316509
30
0
10
-3.9367301282631013
20
1.3578074960855022
30
0
10
-3.9343052401476406
20
1.3561876820896266
30
-3.4967654318902565e-16
10
-3.9308685395659877
20
1.3527517443159542
30
3.4967654318902565e-16
10
-3.9292484740483764
20
1.3503278125397067
30
3.4967654318902565e-16
10
-3.9273887950687461
20
1.3458391098484956
30
-3.4967654318902565e-16
10
-3.9268199699394666
20
1.3429802082816626
30
0
10
-3.9268199699394666
20
1.3381219735209304
30
0
10
-3.9273887950687461
20
1.3352630719540977
30
-3.4967654318902565e-16
10
-3.9284659277358336
20
1.3326631994199101
30
3.4967654318902565e-16
10
-3.9286280267128468
20
1.3323016448953047
30
3.4967654318902565e-16
10
-3.9288045855934666
20
1.3319388861768868
30
0
0
LINE
5
122
100
AcDbEntity
8
0
100
AcDbLine
10
-3.9465121812790702
20
1.3602361302713752
30
3.4967654318902565e-16
11
-4.0318027814004838
21
1.3602361302713757
31
3.4421284720169714e-16
0
ARC
5
123
100
AcDbEntity
8
0
100
AcDbCircle
10
-4.0318027814004838
20
1.3307085712162559
30
-5.6299330067225294e-33
40
0.029527559055119751
210
-2.8202889284337205e-18
220
-1.1657341758563495e-14
230
1
100
AcDbArc
50
90
51
168.27449136691874
0
ARC
5
124
100
AcDbEntity
8
0
100
AcDbCircle
10
-3.8467850468622511
20
1.2923073281306965
30
3.4967654318902477e-16
40
0.21848844803528966
210
-1.5851508985690966e-15
220
2.3830765096135358e-16
230
1
100
AcDbArc
50
168.27449136692135
51
207.08182469041711
0
ARC
5
125
100
AcDbEntity
8
0
100
AcDbCircle
10
-3.7994692334795062
20
1.1812510455450624
30
1.4800847446629464e-31
40
0.24212598425197085
210
1.3419918283574681e-15
220
-9.533748624684104e-17
230
1
100
AcDbArc
50
177.2571224861737
51
214.32390687007052
0
LINE
5
126
100
AcDbEntity
8
0
100
AcDbLine
10
-3.9994321468384397
20
1.0447232991672897
30
-1.3105752777283098e-17
11
-3.8097907382573877
21
0.76696841373594127
31
6.8140757965373085e-19
0
LINE
5
127
100
AcDbEntity
8
0
100
AcDbLine
10
-3.8097907382573877
20
0.76696841373594127
30
6.8140757965373085e-19
11
-3.8097907382573886
21
0.63901565783042924
31
3.4967654318902565e-16
0
ARC
5
128
100
AcDbEntity
8
0
100
AcDbCircle
10
-3.6621529429817978
20
0.63901565783042913
30
8.6201923248327815e-48
40
0.14763779527559054
210
2.3684757858670005e-15
220
-1.3292340491728613e-30
230
1
100
AcDbArc
50
180
51
270
0
LINE
5
129
100
AcDbEntity
8
0
100
AcDbLine
10
-3.6621529429817978
20
0.49137786255483862
30
1.0804921932093767e-32
11
-3.5494928873427578
21
0.49137786255483884
31
3.3874915121436862e-16
0
LINE
5
130
100
AcDbEntity
8
0
100
AcDbLine
10
-3.5494928873427578
20
0.49137786255483884
30
3.3874915121436862e-16
11
-3.5494928873427578
21
0.50935343507387398
31
2.5943087754185736e-23
0
LINE
5
131
100
AcDbEntity
8
0
100
AcDbLine
10
-3.5494928873427578
20
0.50935343507387398
30
2.5943087754185736e-23
11
-3.5815625003783516
21
0.50935343507387387
31
2.7318479936642629e-18
0
LINE
5
132
100
AcDbEntity
8
0
100
AcDbLine
10
-3.5815625003783516
20
0.50935343507387387
30
2.7318479936642629e-18
11
-3.5815625003783755
21
0.57281502082765956
31
5.6873696969931334e-31
0
ARC
5
133
100
AcDbEntity
8
0
100
AcDbCircle
10
-3.5680571419654759
20
0.56628741683845685
30
9.970857782949665e-33
40
0.015000000000000452
210
1.2078377796908207e-17
220
2.7442962693102948e-17
230
1
100
AcDbArc
50
51.258130570144097
51
154.20392505058948
0
ARC
5
134
100
AcDbEntity
8
0
100
AcDbCircle
10
-3.5000000003783058
20
0.65110951289239749
30
0
40
0.09374999999999975
210
-4.7394823629161533e-17
220
3.208586006681329e-17
230
1
100
AcDbArc
50
231.25813057014415
51
238.13469650096562
0
LINE
5
135
100
AcDbEntity
8
0
100
AcDbLine
10
-3.5494928873427569
20
0.57148843126244186
30
8.1843140193701253e-19
11
-3.5494928873427578
21
0.57688714785067741
31
-3.9469758184407151e-23
0
SPLINE
5
136
100
AcDbEntity
8
0
100
AcDbSpline
70
0
71
3
72
18
73
14
74
0
42
0.000000001
43
0.0000000001
44
0.0000000001
40
-0.45012633323103385
40
-0.45012633323103385
40
-0.45012633323103385
40
-0.45012633323103385
40
-0.40320505964592668
40
-0.40320505964592668
40
-0.35149679378627369
40
-0.35149679378627369
40
-0.26360021461478855
40
-0.26360021461478855
40
-0.17574108017296411
40
-0.17574108017296411
40
-0.087886449452319382
40
-0.087886449452319382
40
-0.0046043975184289418
40
-0.0046043975184289418
40
-0.0046043975184289418
40
-0.0046043975184289418
10
-3.5494928873427578
20
0.72473996145897979
30
0
10
-3.5546280563709374
20
0.7213479559643512
30
-3.4967654318902565e-16
10
-3.5593976561136196
20
0.71742956224639998
30
0
10
-3.5684909554001716
20
0.70821816616373323
30
3.4967654318902565e-16
10
-3.5726881346698085
20
0.70285749812744025
30
3.4967654318902565e-16
10
-3.5822571936104146
20
0.68723403866165766
30
0
10
-3.5863041114967271
20
0.6763151919638144
30
0
10
-3.5899838394875525
20
0.65354554658370845
30
3.4967654318902565e-16
10
-3.5895832999792407
20
0.64191298606020109
30
3.4967654318902565e-16
10
-3.5843456086279595
20
0.61945628610390691
30
0
10
-3.5795588779548297
20
0.60884738939652616
30
0
10
-3.5665357545705318
20
0.59055001944495988
30
0
10
-3.5586071126513206
20
0.58290016103712583
30
0
10
-3.5494928873427578
20
0.57688714785067741
30
0
0
LINE
5
137
100
AcDbEntity
8
0
100
AcDbLine
10
-3.5494928873427578
20
0.72473996145897979
30
0
11
-3.5494928873427578
21
0.73073059452235312
31
2.6389348768023468e-23
0
ARC
5
138
100
AcDbEntity
8
0
100
AcDbCircle
10
-3.5000000003783058
20
0.65110951289239749
30
0
40
0.093750000000000305
210
-4.6045050804618218e-17
220
-2.862217942084303e-17
230
1
100
AcDbArc
50
121.86530349903485
51
128.6904536306119
0
ARC
5
139
100
AcDbEntity
8
0
100
AcDbCircle
10
-3.5679809973459835
20
0.73599264756166261
30
3.496765431890256e-16
40
0.014999999999999991
210
6.940144190389922e-17
220
-8.4203475831856002e-17
230
1
100
AcDbArc
50
205.324816917253
51
308.69045363061127
0
ARC
5
140
100
AcDbEntity
8
0
100
AcDbCircle
10
-3.1250000003782401
20
0.72499990979891704
30
-1.7483827159452113e-16
40
0.45656250000008897
210
5.5490974078965968e-17
220
1.6220588705001498e-19
230
1
100
AcDbArc
50
169.1614507591604
51
179.42566814325249
0
LINE
5
141
100
AcDbEntity
8
0
100
AcDbLine
10
-3.5734178619283465
20
0.81085291119759006
30
-1.4996905352494658e-16
11
-3.5441884251562366
21
0.80397225266864292
31
2.7487281031440749e-18
0
ARC
5
142
100
AcDbEntity
8
0
100
AcDbCircle
10
-3.1250000003782401
20
0.72499990979891704
30
-1.7483827159452113e-16
40
0.42656249999993817
210
1.2567942621000103e-15
220
-2.6741884915399931e-16
230
1
100
AcDbArc
50
166.64363717128177
51
169.33090179194343
0
LINE
5
143
100
AcDbEntity
8
0
100
AcDbLine
10
-3.5400248797319436
20
0.8235388154333968
30
3.7311377614762979e-16
11
-3.569226744620793
21
0.83041298349469694
31
-3.469615593819751e-16
0
ARC
5
144
100
AcDbEntity
8
0
100
AcDbCircle
10
-3.1250000003782401
20
0.72499990979891704
30
-1.7483827159452113e-16
40
0.45656250000008547
210
3.204162122221855e-18
220
1.5956096560793474e-17
230
1
100
AcDbArc
50
155.77439188379978
51
166.65086533333647
0
ARC
5
145
100
AcDbEntity
8
0
100
AcDbCircle
10
-3.5327904444859946
20
0.90002771576259755
30
3.496765431890258e-16
40
0.015000000000000593
210
9.1140194095573304e-17
220
6.5852139048895511e-17
230
1
100
AcDbArc
50
21.871057223840111
51
124.82321627562455
0
ARC
5
146
100
AcDbEntity
8
0
100
AcDbCircle
10
-3.4318677747742661
20
0.94053916153113781
30
3.4967654318902565e-16
40
0.093749999999999528
210
-1.7049418036311041e-17
220
-4.3905504217025745e-18
230
1
100
AcDbArc
50
201.87105722383765
51
207.34763714712537
0
ARC
5
147
100
AcDbEntity
8
0
100
AcDbCircle
10
-3.1250000003782401
20
0.72499990979891704
30
-1.7483827159452113e-16
40
0.42656249999996165
210
1.1570546906986494e-15
220
-5.5753532004955638e-16
230
1
100
AcDbArc
50
155.41129614091088
51
156.15091175836724
0
SPLINE
5
148
100
AcDbEntity
8
0
100
AcDbSpline
70
0
71
3
72
23
73
19
74
0
42
0.000000001
43
0.0000000001
44
0.0000000001
40
1.2081085134320844
40
1.2081085134320844
40
1.2081085134320844
40
1.2081085134320844
40
1.2308482461965071
40
1.2308482461965071
40
1.3188737602045602
40
1.3188737602045602
40
1.3687144916041225
40
1.3687144916041225
40
1.4185497754008662
40
1.4185497754008662
40
1.4185497754008662
40
1.5065129794721881
40
1.5065129794721881
40
1.5944020788450364
40
1.5944020788450364
40
1.6822412701305645
40
1.6822412701305645
40
1.6824666452452528
40
1.6824666452452528
40
1.6824666452452528
40
1.6824666452452528
10
-3.4246988027347292
20
1.0285393541420209
30
0
10
-3.4276602798090976
20
1.0288062161814377
30
3.4967654318902565e-16
10
-3.4306386157309232
20
1.0289244761179943
30
3.4967654318902565e-16
10
-3.4451739068278853
20
1.0287667246053089
30
0
10
-3.456590730481429
20
1.0263862928507896
30
0
10
-3.4732535499076826
20
1.0193366252460694
30
0
10
-3.4789772240868606
20
1.0161296907877864
30
0
10
-3.4896142709348306
20
1.0085163929365846
30
-3.4967654318902565e-16
10
-3.4944952831402647
20
1.004133384257782
30
0
10
-3.4988496938986002
20
0.99925367756516437
30
-3.4967654318902565e-16
10
-3.5065355721150868
20
0.99064061061923137
30
0
10
-3.5124658797186514
20
0.98060887918314987
30
0
10
-3.5201410421138841
20
0.95884515798547687
30
0
10
-3.5218158784349169
20
0.94732302795941503
30
3.4967654318902565e-16
10
-3.5206524357939206
20
0.92429147303617776
30
3.4967654318902565e-16
10
-3.5178278582202243
20
0.91300311064983253
30
0
10
-3.5129062593884819
20
0.9025467152263672
30
3.4967654318902565e-16
10
-3.5128936509158328
20
0.90251996215823971
30
3.4967654318902565e-16
10
-3.5128810293483119
20
0.90249321607082977
30
3.4967654318902565e-16
0
ARC
5
149
100
AcDbEntity
8
0
100
AcDbCircle
10
-3.1250000003782401
20
0.72499990979891704
30
-1.7483827159452113e-16
40
0.42656250000000173
210
8.8939417727403265e-16
220
-8.4846026871861175e-16
230
1
100
AcDbArc
50
133.68184739029388
51
134.63521941048211
0
ARC
5
150
100
AcDbEntity
8
0
100
AcDbCircle
10
-3.4318677747742661
20
0.94053916153113781
30
3.4967654318902565e-16
40
0.093750000000000444
210
5.5772018092561964e-17
220
7.8515044417557199e-19
230
1
100
AcDbArc
50
82.485122001563354
51
87.961701924805396
0
ARC
5
151
100
AcDbEntity
8
0
100
AcDbCircle
10
-3.4279998081511986
20
1.0492203527934847
30
3.496765431890256e-16
40
0.014999999999999843
210
5.5476027992257344e-17
220
4.7887608581316978e-19
230
1
100
AcDbArc
50
165.00954287295647
51
267.9617019248065
0
ARC
5
152
100
AcDbEntity
8
0
100
AcDbCircle
10
-3.1250000003782401
20
0.72499990979891704
30
-1.7483827159452113e-16
40
0.45656250000006415
210
-3.8601943976110014e-17
220
4.2345346778885076e-17
230
1
100
AcDbArc
50
122.98479756362775
51
134.05836583019448
0
LINE
5
153
100
AcDbEntity
8
0
100
AcDbLine
10
-3.3735601537421713
20
1.1079714055606873
30
-2.006502375038294e-16
11
-3.3577786970652665
21
1.0824487100136515
31
3.5110508123555102e-16
0
ARC
5
154
100
AcDbEntity
8
0
100
AcDbCircle
10
-3.1250000003782401
20
0.72499990979891704
30
-1.7483827159452113e-16
40
0.42656250000001977
210
5.9390496869652513e-16
220
-1.0103824460130449e-15
230
1
100
AcDbArc
50
120.38643801702686
51
123.07307966785086
0
LINE
5
155
100
AcDbEntity
8
0
100
AcDbLine
10
-3.3407679356638669
20
1.0929669796690951
30
3.2509484536468639e-16
11
-3.3565493923407663
21
1.1184896752161255
31
-3.4973915723871891e-16
0
ARC
5
156
100
AcDbEntity
8
0
100
AcDbCircle
10
-3.1250000003782401
20
0.72499990979891704
30
-1.7483827159452113e-16
40
0.45656250000004561
210
-4.7842452842757605e-17
220
-2.5699663187091972e-17
230
1
100
AcDbArc
50
109.40115042002245
51
120.47472012124912
0
ARC
5
157
100
AcDbEntity
8
0
100
AcDbCircle
10
-3.2796643197525568
20
1.1409406838022638
30
-3.4967654318902565e-16
40
0.015000000000000688
210
-5.5573166828015159e-18
220
-2.4740263018844468e-17
230
1
100
AcDbArc
50
-24.502184239940011
51
78.449974811859818
0
ARC
5
158
100
AcDbEntity
8
0
100
AcDbCircle
10
-3.1807077508464654
20
1.0958390211906259
30
1.7483827159451283e-16
40
0.09374999999999932
210
-5.0677950966471165e-15
220
2.3732187974523372e-15
230
1
100
AcDbArc
50
155.49781576005637
51
160.97439568325836
0
ARC
5
159
100
AcDbEntity
8
0
100
AcDbCircle
10
-3.1250000003782401
20
0.72499990979891704
30
-1.7483827159452113e-16
40
0.42656250000003026
210
4.1052128077143352e-16
220
-1.1860311818229902e-15
230
1
100
AcDbArc
50
109.05572006403563
51
109.77767029457787
0
SPLINE
5
160
100
AcDbEntity
8
0
100
AcDbSpline
70
0
71
3
72
23
73
19
74
0
42
0.000000001
43
0.0000000001
44
0.0000000001
40
1.0375517501316189
40
1.0375517501316189
40
1.0375517501316189
40
1.0375517501316189
40
1.0550018368679959
40
1.0550018368679959
40
1.1429471636916113
40
1.1429471636916113
40
1.2309969164234287
40
1.2309969164234287
40
1.3190885875553795
40
1.3190885875553795
40
1.368943472464863
40
1.368943472464863
40
1.4187877096682138
40
1.4187877096682138
40
1.4187877096682138
40
1.5067238364949627
40
1.5067238364949627
40
1.5091483250071349
40
1.5091483250071349
40
1.5091483250071349
40
1.5091483250071349
10
-3.112675522416835
20
1.151384329839132
30
0
10
-3.1141092123035747
20
1.1531611420381243
30
3.4967654318902565e-16
10
-3.1156132024530909
20
1.1548845335131266
30
-1.7483827159451283e-16
10
-3.1251050576775841
20
1.1649447231117207
30
1.7483827159451283e-16
10
-3.134589626847784
20
1.1717117577421439
30
-3.4967654318902565e-16
10
-3.1556293984278927
20
1.1812395075650532
30
-3.4967654318902565e-16
10
-3.1669865601223761
20
1.1839046975060887
30
0
10
-3.1900876072965416
20
1.1847344450606589
30
-3.4967654318902565e-16
10
-3.2016121772989035
20
1.1828889755874348
30
-3.4967654318902565e-16
10
-3.2185958776506722
20
1.1766212064783392
30
0
10
-3.2244647274298912
20
1.173684182211681
30
1.7483827159451283e-16
10
-3.2354480254481581
20
1.1665739039474323
30
3.4967654318902565e-16
10
-3.2405290918955991
20
1.1624226257448822
30
1.7483827159451283e-16
10
-3.2451069929411482
20
1.1577503005373513
30
3.4967654318902565e-16
10
-3.2531834107885982
20
1.1495072978337677
30
0
10
-3.2595726826050968
20
1.139766096925408
30
3.4967654318902565e-16
10
-3.2640328527445375
20
1.1287787274107968
30
0
10
-3.2641509037949747
20
1.1284833556741229
30
0
10
-3.2642673313485333
20
1.1281874306011934
30
3.4967654318902565e-16
0
ARC
5
161
100
AcDbEntity
8
0
100
AcDbCircle
10
-3.1250000003782401
20
0.72499990979891704
30
-1.7483827159452113e-16
40
0.42656250000003709
210
-5.773910131582013e-17
220
-1.2258221720788742e-15
230
1
100
AcDbArc
50
87.30860592652283
51
88.344348473966775
0
ARC
5
162
100
AcDbEntity
8
0
100
AcDbCircle
10
-3.1807077508464654
20
1.0958390211906259
30
1.7483827159451283e-16
40
0.09375000000000086
210
-1.4660700672282995e-15
220
-1.1358022995946281e-15
230
1
100
AcDbArc
50
36.111880537847199
51
41.5884604610252
0
ARC
5
163
100
AcDbEntity
8
0
100
AcDbCircle
10
-3.0993701684633739
20
1.168024616651727
30
3.4967654318902575e-16
40
0.015000000000000057
210
3.6846947184910649e-17
220
-3.9065285351261516e-17
230
1
100
AcDbArc
50
118.63630140934193
51
221.5884604610271
0
ARC
5
164
100
AcDbEntity
8
0
100
AcDbCircle
10
-3.1250000003782401
20
0.72499990979891704
30
-1.7483827159452113e-16
40
0.45656249999998916
210
1.1065143179162165e-16
220
-8.9642843497903588e-18
230
1
100
AcDbArc
50
76.611556099845785
51
87.685124366419387
0
LINE
5
165
100
AcDbEntity
8
0
100
AcDbLine
10
-3.0192821784070834
20
1.1691542281657601
30
-1.8255457435649366e-16
11
-3.026868237109142
21
1.1401212456080709
31
-6.1173626878023651e-19
0
ARC
5
166
100
AcDbEntity
8
0
100
AcDbCircle
10
-3.1250000003782401
20
0.72499990979891704
30
-1.7483827159452113e-16
40
0.42656250000003221
210
-2.8529594125651517e-16
220
-1.1949113692037203e-15
230
1
100
AcDbArc
50
74.01319655324491
51
76.699838204068854
0
LINE
5
167
100
AcDbEntity
8
0
100
AcDbLine
10
-3.0075178852565601
20
1.1350651717180582
30
3.4867054260260798e-16
11
-2.9999318265545019
21
1.1640981542757445
31
-1.7559245932256472e-16
0
ARC
5
168
100
AcDbEntity
8
0
100
AcDbCircle
10
-3.1250000003782401
20
0.72499990979891704
30
-1.7483827159452113e-16
40
0.45656249999996734
210
-7.9275128370867402e-30
220
2.4532694666772995e-18
230
1
100
AcDbArc
50
63.02790895624026
51
74.101478657466856
0
ARC
5
169
100
AcDbEntity
8
0
100
AcDbCircle
10
-2.9306332245367375
20
1.1239351622082967
30
5.914273057567102e-33
40
0.014999999999999292
210
-1.7557239272660893e-17
220
-7.4062867205003939e-17
230
1
100
AcDbArc
50
-70.87542570371744
51
32.076733348066554
0
ARC
5
170
100
AcDbEntity
8
0
100
AcDbCircle
10
-2.8950042059184464
20
1.0211872399310196
30
1.7483827159451283e-16
40
0.093750000000000236
210
-6.1360521418903225e-16
220
1.7719844915268084e-15
230
1
100
AcDbArc
50
109.12457429628166
51
114.60115421942965
0
ARC
5
171
100
AcDbEntity
8
0
100
AcDbCircle
10
-3.1250000003782401
20
0.72499990979891704
30
-1.7483827159452113e-16
40
0.42656250000002266
210
-5.2912948441708699e-16
220
-1.139530307278236e-15
230
1
100
AcDbArc
50
62.611854303602193
51
63.404428830788376
0
SPLINE
5
172
100
AcDbEntity
8
0
100
AcDbSpline
70
0
71
3
72
18
73
14
74
0
42
0.000000001
43
0.0000000001
44
0.0000000001
40
0.8509364190638834
40
0.8509364190638834
40
0.8509364190638834
40
0.8509364190638834
40
0.87927570771647034
40
0.87927570771647034
40
0.967083185609799
40
0.967083185609799
40
1.0549935852637127
40
1.0549935852637127
40
1.1430295899201401
40
1.1430295899201401
40
1.2311380174553725
40
1.2311380174553725
40
1.3188868820970518
40
1.3188868820970518
40
1.3188868820970518
40
1.3188868820970518
10
-2.808039227270279
20
1.0104669564383209
30
1.7483827159451283e-16
10
-2.8075838198399143
20
1.014142417806847
30
1.7483827159451283e-16
10
-2.8073587267641193
20
1.0178504151812844
30
1.7483827159451283e-16
10
-2.8073972690737894
20
1.03309239199855
30
1.7483827159451283e-16
10
-2.8096771624370329
20
1.0444987668586667
30
1.7483827159451283e-16
10
-2.818483044564998
20
1.065811102560017
30
-1.7483827159451283e-16
10
-2.8249294318544029
20
1.0755107528341559
30
1.7483827159451283e-16
10
-2.8411853820756345
20
1.0919091727343777
30
0
10
-2.8508446274472052
20
1.0984472249207031
30
0
10
-2.872132013246897
20
1.1074597905672479
30
1.7483827159451283e-16
10
-2.8835595935787164
20
1.109845361572241
30
1.7483827159451283e-16
10
-2.9066371047049073
20
1.1101013184871487
30
0
10
-2.9180679528605067
20
1.1079876720991733
30
-3.4967654318902565e-16
10
-2.9287743874458858
20
1.1037492665450261
30
1.7483827159451283e-16
0
ARC
5
173
100
AcDbEntity
8
0
100
AcDbCircle
10
-3.1250000003782401
20
0.72499990979891704
30
-1.7483827159452113e-16
40
0.42656249999999252
210
-9.5973112161775227e-16
220
-6.8296734901246883e-16
230
1
100
AcDbArc
50
40.935364462738036
51
42.00741502288367
0
ARC
5
174
100
AcDbEntity
8
0
100
AcDbCircle
10
-2.8950042059184464
20
1.0211872399310196
30
1.7483827159451283e-16
40
0.093750000000000416
210
-1.5789499482336453e-15
220
2.8829726413185894e-16
230
1
100
AcDbArc
50
349.73863907407616
51
355.21521899722222
0
ARC
5
175
100
AcDbEntity
8
0
100
AcDbCircle
10
-2.7866331941505758
20
1.0121160598309489
30
1.829254327100081e-33
40
0.014999999999999595
210
-5.787950004379892e-19
220
-4.4614427440312599e-18
230
1
100
AcDbArc
50
72.263059945290138
51
175.2152189972245
0
ARC
5
176
100
AcDbEntity
8
0
100
AcDbCircle
10
-3.1250000003782401
20
0.72499990979891704
30
-1.7483827159452113e-16
40
0.45656249999994375
210
-1.1498814025523369e-16
220
4.9199040994683261e-17
230
1
100
AcDbArc
50
30.238314636060984
51
41.311882902622301
0
LINE
5
177
100
AcDbEntity
8
0
100
AcDbLine
10
-2.7305582018005858
20
0.95492377533058403
30
-1.4079417642309573e-16
11
-2.7568077773197692
21
0.94038341261537639
31
1.7487394302239668e-16
0
ARC
5
178
100
AcDbEntity
8
0
100
AcDbCircle
10
-3.1250000003782401
20
0.72499990979891704
30
-1.7483827159452113e-16
40
0.42656249999996787
210
-1.0893065699718745e-15
220
-5.6799003248479567e-16
230
1
100
AcDbArc
50
27.639955089459718
51
30.326596740284042
0
LINE
5
179
100
AcDbEntity
8
0
100
AcDbLine
10
-2.7471166911888782
20
0.92288818899280911
30
3.4919106991586307e-16
11
-2.7208671156696926
21
0.93742855170801742
31
-3.5671427883873224e-20
0
ARC
5
180
100
AcDbEntity
8
0
100
AcDbCircle
10
-3.1250000003782401
20
0.72499990979891704
30
-1.7483827159452113e-16
40
0.45656249999993248
210
-1.7832474244573072e-29
220
2.453269466689439e-18
230
1
100
AcDbArc
50
16.678535186750153
51
27.728237193681814
0
ARC
5
181
100
AcDbEntity
8
0
100
AcDbCircle
10
-2.7022146576528394
20
0.85960162997239509
30
1.7483827159451283e-16
40
0.01500000000000035
210
-7.3281634383934324e-31
220
2.453269466693567e-18
230
1
100
AcDbArc
50
242.80387062453244
51
346.24124500763173
0
ARC
5
182
100
AcDbEntity
8
0
100
AcDbCircle
10
-2.7519175229014072
20
0.76287424147212191
30
1.7483827159451283e-16
40
0.093749999999999903
210
4.8217394704665217e-17
220
-2.5168780478801076e-17
230
1
100
AcDbArc
50
62.803870624532429
51
68.227912755673287
0
ARC
5
183
100
AcDbEntity
8
0
100
AcDbCircle
10
-3.1250000003782401
20
0.72499990979891704
30
-1.7483827159452113e-16
40
0.4265624999999435
210
-1.1889868838216134e-15
220
-3.1230842801777771e-16
230
1
100
AcDbArc
50
16.120901318657268
51
17.031187367008098
0
SPLINE
5
184
100
AcDbEntity
8
0
100
AcDbSpline
70
0
71
3
72
20
73
16
74
0
42
0.000000001
43
0.0000000001
44
0.0000000001
40
0.082089263255876482
40
0.082089263255876482
40
0.082089263255876482
40
0.082089263255876482
40
0.087966482078040822
40
0.087966482078040822
40
0.17584001901300933
40
0.17584001901300933
40
0.26365570990535286
40
0.26365570990535286
40
0.35148605017719881
40
0.35148605017719881
40
0.43939606856138341
40
0.43939606856138341
40
0.52740184682738245
40
0.52740184682738245
40
0.55015019876503735
40
0.55015019876503735
40
0.55015019876503735
40
0.55015019876503735
10
-2.7005071134021765
20
0.69163439675236837
30
1.7483827159451283e-16
10
-2.6998845980577926
20
0.69208818883693823
30
1.7483827159451283e-16
10
-2.6992676607603223
20
0.69255035287819777
30
-1.7483827159451283e-16
10
-2.6895183391605917
20
0.7000547596511203
30
0
10
-2.6818418968268101
20
0.70880603119962804
30
1.7483827159451283e-16
10
-2.6702817771127183
20
0.72875427755908828
30
0
10
-2.6665067848236776
20
0.73975782558843806
30
1.7483827159451283e-16
10
-2.6633863335576544
20
0.76259579600815763
30
1.7483827159451283e-16
10
-2.6640715707321707
20
0.7742108416889657
30
1.7483827159451283e-16
10
-2.6698549740541448
20
0.79653675267564139
30
1.7483827159451283e-16
10
-2.6749017007837361
20
0.80703293695141842
30
0
10
-2.6887382652178498
20
0.82551325303323064
30
-1.7483827159451283e-16
10
-2.6974002073315839
20
0.83331842256404276
30
0
10
-2.7098756026446251
20
0.84077678860698435
30
1.7483827159451283e-16
10
-2.7125115983142787
20
0.84217720781138539
30
3.4967654318902565e-16
10
-2.7152108222596087
20
0.84344143926835036
30
0
0
LINE
5
185
100
AcDbEntity
8
0
100
AcDbLine
10
-2.7005071134021765
20
0.69163439675236837
30
1.7483827159451283e-16
11
-2.7005071134137237
21
0.68447760700157423
31
1.9594304838917562e-23
0
ARC
5
186
100
AcDbEntity
8
0
100
AcDbCircle
10
-2.7519175229014072
20
0.76287424147212191
30
1.7483827159451283e-16
40
0.093749999999999861
210
1.070237382089215e-15
220
-1.528342520659968e-15
230
1
100
AcDbArc
50
303.25578752991652
51
310.40906629625096
0
ARC
5
187
100
AcDbEntity
8
0
100
AcDbCircle
10
-2.6814213798067303
20
0.68006810456926325
30
1.7483827159451283e-16
40
0.015000000000000556
210
3.5984570671715731e-17
220
-3.9814905140117349e-17
230
1
100
AcDbArc
50
30.049699792229195
51
130.40906629625118
0
LINE
5
188
100
AcDbEntity
8
0
100
AcDbLine
10
-2.6684375093238883
20
0.68757936992769586
30
1.7467011290725883e-16
11
-2.668437500378313
21
0.62051860764638989
31
1.7483827159451315e-16
0
LINE
5
189
100
AcDbEntity
8
0
100
AcDbLine
10
-2.668437500378313
20
0.62051860764638989
30
1.7483827159451315e-16
11
-2.7005071134137233
21
0.62051860764639333
31
1.7210642360084857e-16
0
LINE
5
190
100
AcDbEntity
8
0
100
AcDbLine
10
-2.7005071134137233
20
0.62051860764639333
30
1.7210642360084857e-16
11
-2.7005071134137233
21
0.6005186076463932
31
0
0
ENDSEC
0
SECTION
2
OBJECTS
0
DICTIONARY
5
C
100
AcDbDictionary
3
ACAD_GROUP
350
D
3
ACAD_MLINESTYLE
350
17
0
DICTIONARY
5
D
100
AcDbDictionary
0
DICTIONARY
5
1A
330
C
100
AcDbDictionary
0
DICTIONARY
5
17
100
AcDbDictionary
0
ENDSEC
0
EOF
