0
SECTION
2
HEADER
9
$INSUNITS
70
1
9
$ACADVER
1
AC1014
9
$HANDSEED
5
FFFF
0
ENDSEC
0
SECTION
2
TABLES
0
TABLE
2
VPORT
5
8
100
AcDbSymbolTable
0
ENDTAB
0
TABLE
2
LTYPE
5
5
100
AcDbSymbolTable
0
LTYPE
5
14
100
AcDbSymbolTableRecord
100
AcDbLinetypeTableRecord
2
BYBLOCK
70
0
0
LTYPE
5
15
100
AcDbSymbolTableRecord
100
AcDbLinetypeTableRecord
2
BYLAYER
70
0
0
ENDTAB
0
TABLE
2
LAYER
5
2
100
AcDbSymbolTable
70
2
0
LAYER
5
50
100
AcDbSymbolTableRecord
100
AcDbLayerTableRecord
2
0
70
0
6
CONTINUOUS
0
ENDTAB
0
TABLE
2
STYLE
5
3
100
AcDbSymbolTable
70
1
0
STYLE
5
11
100
AcDbSymbolTableRecord
100
AcDbTextStyleTableRecord
2
STANDARD
70
0
0
ENDTAB
0
TABLE
2
VIEW
5
6
100
AcDbSymbolTable
70
0
0
ENDTAB
0
TABLE
2
UCS
5
7
100
AcDbSymbolTable
70
0
0
ENDTAB
0
TABLE
2
APPID
5
9
100
AcDbSymbolTable
70
2
0
APPID
5
12
100
AcDbSymbolTableRecord
100
AcDbRegAppTableRecord
2
ACAD
70
0
0
ENDTAB
0
TABLE
2
DIMSTYLE
5
A
100
AcDbSymbolTable
70
1
0
ENDTAB
0
TABLE
2
BLOCK_RECORD
5
1
100
AcDbSymbolTable
70
1
0
BLOCK_RECORD
5
1F
100
AcDbSymbolTableRecord
100
AcDbBlockTableRecord
2
*MODEL_SPACE
0
BLOCK_RECORD
5
1B
100
AcDbSymbolTableRecord
100
AcDbBlockTableRecord
2
*PAPER_SPACE
0
ENDTAB
0
ENDSEC
0
SECTION
2
BLOCKS
0
BLOCK
5
20
100
AcDbEntity
100
AcDbBlockBegin
2
*MODEL_SPACE
0
ENDBLK
5
21
100
AcDbEntity
100
AcDbBlockEnd
0
BLOCK
5
1C
100
AcDbEntity
100
AcDbBlockBegin
2
*PAPER_SPACE
0
ENDBLK
5
1D
100
AcDbEntity
100
AcDbBlockEnd
0
ENDSEC
0
SECTION
2
ENTITIES
0
ARC
5
100
100
AcDbEntity
8
0
100
AcDbCircle
10
-3.4999999987123704
20
0.57523147398314567
30
2.1854783949314103e-17
40
0.093750000000000097
210
-3.3976652908775751e-17
220
-3.6538653624643716e-17
230
1
100
AcDbArc
50
232.26074654227483
51
238.13469650094575
0
LINE
5
101
100
AcDbEntity
8
0
100
AcDbLine
10
-3.5494928856768491
20
0.49561039235320725
30
1.7263934184572924e-17
11
-3.5494928856768504
21
0.50100939290664459
31
2.1854783949314103e-17
0
SPLINE
5
102
100
AcDbEntity
8
0
100
AcDbSpline
70
0
71
3
72
18
73
14
74
0
42
0.000000001
43
0.0000000001
44
0.0000000001
40
-0.45011884816170561
40
-0.45011884816170561
40
-0.45011884816170561
40
-0.45011884816170561
40
-0.40319880225162869
40
-0.40319880225162869
40
-0.35149688204353252
40
-0.35149688204353252
40
-0.2636002748682873
40
-0.2636002748682873
40
-0.17574109068953567
40
-0.17574109068953567
40
-0.087886429372598607
40
-0.087886429372598607
40
-0.0045993916776794251
40
-0.0045993916776794251
40
-0.0045993916776794251
40
-0.0045993916776794251
10
-3.5494928856768504
20
0.64886168976573189
30
2.1854783949314103e-17
10
-3.5546279053270484
20
0.64546974360776488
30
-3.2782175923971154e-16
10
-3.5593973700201769
20
0.64155143841610407
30
2.1854783949314103e-17
10
-3.5684899699288257
20
0.63234074853498456
30
-3.2782175923971154e-16
10
-3.5726867049707343
20
0.62698080078943674
30
2.1854783949314103e-17
10
-3.5822557663022132
20
0.61135831502315086
30
2.1854783949314103e-17
10
-3.5863029888245253
20
0.60043957693892935
30
2.1854783949314103e-17
10
-3.5899833510797614
20
0.57767002351459706
30
-3.2782175923971154e-16
10
-3.5895831341319622
20
0.56603744479638818
30
2.1854783949314103e-17
10
-3.5843460637116116
20
0.54358058890139438
30
2.1854783949314103e-17
10
-3.5795596262540306
20
0.5329715550048657
30
-3.2782175923971154e-16
10
-3.5665366299771275
20
0.51467328632182274
30
-3.2782175923971154e-16
10
-3.5586076312313208
20
0.50702282383682629
30
-3.2782175923971154e-16
10
-3.5494928856768504
20
0.5010093929066447
30
2.1854783949314103e-17
0
LINE
5
103
100
AcDbEntity
8
0
100
AcDbLine
10
-3.5494928856768504
20
0.64886168976573189
30
2.1854783949314103e-17
11
-3.5494928856768504
21
0.65485255561308398
31
2.1854783949314103e-17
0
ARC
5
104
100
AcDbEntity
8
0
100
AcDbCircle
10
-3.4999999987123704
20
0.57523147398314567
30
2.1854783949314103e-17
40
0.093750000000000458
210
9.7590156632120422e-17
220
6.0662559364469549e-17
230
1
100
AcDbArc
50
121.86530349905499
51
127.7392534577187
0
ARC
5
105
100
AcDbEntity
8
0
100
AcDbCircle
10
-3.5665624987123388
20
0.6612314512724119
30
2.18547839493141e-17
40
0.015000000000000008
210
6.0858323911320408e-32
220
7.3598084000806464e-18
230
1
100
AcDbArc
50
180
51
307.73925345771841
0
LINE
5
106
100
AcDbEntity
8
0
100
AcDbLine
10
-3.5815624987123389
20
0.66123145127244431
30
2.1854783949313863e-17
11
-3.5815624987122003
21
0.72488254869796265
31
-3.2782175923970902e-16
0
LINE
5
107
100
AcDbEntity
8
0
100
AcDbLine
10
-3.5815624987122003
20
0.72488254869796265
30
-3.2782175923970902e-16
11
-3.5494928856768495
21
0.72155201304787153
31
2.1879296053568409e-17
0
LINE
5
108
100
AcDbEntity
8
0
100
AcDbLine
10
-3.5494928856768495
20
0.72155201304787153
30
2.1879296053568409e-17
11
-3.5494928856768504
21
0.74165957889958334
31
2.1854783949314103e-17
0
LINE
5
109
100
AcDbEntity
8
0
100
AcDbLine
10
-3.5494928856768504
20
0.74165957889958334
30
2.1854783949314103e-17
11
-3.5811266431721647
21
0.74494484950663253
31
2.1830604987103804e-17
0
ARC
5
110
100
AcDbEntity
8
0
100
AcDbCircle
10
-3.1249999987122767
20
0.72499990979892726
30
1.9669305554382312e-16
40
0.4565624999999246
210
-1.5156284248487397e-19
220
3.8936735415956612e-18
230
1
100
AcDbArc
50
167.36770224974637
51
177.4962362199654
0
ARC
5
111
100
AcDbEntity
8
0
100
AcDbCircle
10
-3.5596452047366047
20
0.81450590985469506
30
2.1854783949314119e-17
40
0.015000000000000751
210
6.6637176075798361e-32
220
7.3598084000810531e-18
230
1
100
AcDbArc
50
33.464367589800567
51
136.41652664160088
0
ARC
5
112
100
AcDbEntity
8
0
100
AcDbCircle
10
-3.4689228105580452
20
0.87447264808940528
30
2.1854783949314103e-17
40
0.093750000000000389
210
-3.4537134908179611e-17
220
5.1072922498219178e-17
230
1
100
AcDbArc
50
213.46436758979948
51
218.94094751293784
0
ARC
5
113
100
AcDbEntity
8
0
100
AcDbCircle
10
-3.1249999987122767
20
0.72499990979892726
30
1.9669305554382312e-16
40
0.42656249999998958
210
-6.9678525822850456e-16
220
1.3988169784146784e-16
230
1
100
AcDbArc
50
166.98881472664243
51
167.74422212429184
0
SPLINE
5
114
100
AcDbEntity
8
0
100
AcDbSpline
70
0
71
3
72
20
73
16
74
0
42
0.000000001
43
0.0000000001
44
0.0000000001
40
0.0084349598328359171
40
0.0084349598328359171
40
0.0084349598328359171
40
0.0084349598328359171
40
0.066171618552339009
40
0.066171618552339009
40
0.13234194066312374
40
0.13234194066312374
40
0.22033945794621823
40
0.22033945794621823
40
0.30827723696676579
40
0.30827723696676579
40
0.39615098341269583
40
0.39615098341269583
40
0.44349790060077027
40
0.44349790060077027
40
0.4830375117524654
40
0.4830375117524654
40
0.4830375117524654
40
0.4830375117524654
10
-3.4794899122035861
20
0.96226024705465918
30
-3.2782175923971154e-16
10
-3.4870112232287278
20
0.9614211650870329
30
-3.2782175923971154e-16
10
-3.4943990802369238
20
0.95962239668272642
30
2.1854783949314103e-17
10
-3.5095778974456247
20
0.95379004066920914
30
2.1854783949314103e-17
10
-3.5171829417009213
20
0.94950187734924096
30
2.1854783949314103e-17
10
-3.5331657556804252
20
0.93709691928880079
30
2.1854783949314103e-17
10
-3.5408185569074937
20
0.92830203745103479
30
3.7153132713833977e-16
10
-3.5523156024072886
20
0.90827976630205476
30
-3.2782175923971154e-16
10
-3.556052487187721
20
0.89724544004635143
30
2.1854783949314103e-17
10
-3.5590820086324797
20
0.87437331851546107
30
2.1854783949314103e-17
10
-3.5583488085910027
20
0.86275534891745964
30
-6.7749830242873724e-16
10
-3.5538243454279845
20
0.8455968355411968
30
-3.2782175923971154e-16
10
-3.551611997193894
20
0.83977237704553043
30
-3.2782175923971154e-16
10
-3.5464665273340499
20
0.82959728504495045
30
2.1854783949314103e-17
10
-3.543723302116041
20
0.82518352441338572
30
-3.2782175923971154e-16
10
-3.5406109890982966
20
0.82103673126128185
30
2.1854783949314103e-17
0
ARC
5
115
100
AcDbEntity
8
0
100
AcDbCircle
10
-3.1249999987122767
20
0.72499990979892726
30
1.9669305554382312e-16
40
0.42656250000002205
210
-6.4213275691801948e-16
220
5.1994590416393548e-16
230
1
100
AcDbArc
50
145.27515775624539
51
146.20557819016943
0
ARC
5
116
100
AcDbEntity
8
0
100
AcDbCircle
10
-3.4689228105580452
20
0.87447264808940528
30
2.1854783949314103e-17
40
0.093749999999999944
210
-7.8102320399039376e-17
220
1.8832312902335744e-15
230
1
100
AcDbArc
50
94.078432367622966
51
99.555012290835307
0
ARC
5
117
100
AcDbEntity
8
0
100
AcDbCircle
10
-3.4869747132402886
20
0.9817139242360029
30
-3.2782175923971154e-16
40
0.014999999999999732
210
-8.7523886322677933e-31
220
7.3598084000799515e-18
230
1
100
AcDbArc
50
176.60285323964141
51
279.55501229083961
0
ARC
5
118
100
AcDbEntity
8
0
100
AcDbCircle
10
-3.1249999987122767
20
0.72499990979892726
30
1.9669305554382312e-16
40
0.45656249999996446
210
-3.1320644238651861e-17
220
-3.8471459916381485e-17
230
1
100
AcDbArc
50
134.57810792956505
51
145.65167619616582
0
LINE
5
119
100
AcDbEntity
8
0
100
AcDbLine
10
-3.4454525174970265
20
1.0502067664467034
30
1.9916745875764343e-16
11
-3.4248638912759954
21
1.0283762640897842
31
-3.2492924293142288e-16
0
ARC
5
120
100
AcDbEntity
8
0
100
AcDbCircle
10
-3.1249999987122767
20
0.72499990979892726
30
1.9669305554382312e-16
40
0.42656250000003421
210
-6.2670306680310957e-16
220
6.2088631378473442e-16
230
1
100
AcDbArc
50
131.97974838296275
51
134.66639003378677
0
LINE
5
121
100
AcDbEntity
8
0
100
AcDbLine
10
-3.4103139599733474
20
1.0420984905522879
30
-1.7899624789055834e-16
11
-3.4309025861943763
21
1.0639289929092051
31
-3.3071427554800025e-16
0
ARC
5
122
100
AcDbEntity
8
0
100
AcDbCircle
10
-3.1249999987122767
20
0.72499990979892726
30
1.9669305554382312e-16
40
0.45656249999996001
210
3.7193165877078472e-17
220
-3.3848883923994842e-17
230
1
100
AcDbArc
50
120.99446078596242
51
132.06803048718592
0
ARC
5
123
100
AcDbEntity
8
0
100
AcDbCircle
10
-3.3600979018490769
20
1.101373069185495
30
-3.2782175923971154e-16
40
0.015000000000000926
210
5.6107042472130157e-21
220
-6.6974362088136893e-20
230
1
100
AcDbArc
50
-12.90887387396468
51
90.043285177800925
0
ARC
5
124
100
AcDbEntity
8
0
100
AcDbCircle
10
-3.2540963834576768
20
1.0770782014410984
30
-1.5298348764519871e-16
40
0.09374999999999957
210
-1.8131083991622584e-15
220
4.3715023856904287e-16
230
1
100
AcDbArc
50
167.09112612603303
51
172.56770604916193
0
ARC
5
125
100
AcDbEntity
8
0
100
AcDbCircle
10
-3.1249999987122767
20
0.72499990979892726
30
1.9669305554382312e-16
40
0.42656250000003948
210
-3.8963521980494633e-16
220
6.6481881305640464e-16
230
1
100
AcDbArc
50
120.65259535388779
51
121.37098066050632
0
SPLINE
5
126
100
AcDbEntity
8
0
100
AcDbSpline
70
0
71
3
72
18
73
14
74
0
42
0.000000001
43
0.0000000001
44
0.0000000001
40
0.034452539762419382
40
0.034452539762419382
40
0.034452539762419382
40
0.034452539762419382
40
0.087874471198010673
40
0.087874471198010673
40
0.17586426918063497
40
0.17586426918063497
40
0.26393900459518393
40
0.26393900459518393
40
0.35202062470014639
40
0.35202062470014639
40
0.44003100827653352
40
0.44003100827653352
40
0.50718882529942033
40
0.50718882529942033
40
0.50718882529942033
40
0.50718882529942033
10
-3.1984840035385629
20
1.1451851873146042
30
-3.2782175923971154e-16
10
-3.2038601219287255
20
1.1496360468817479
30
2.1854783949314103e-17
10
-3.2097555447448025
20
1.1534464921513312
30
5.4636959873285255e-16
10
-3.2264248434310443
20
1.1616039790772261
30
3.7153132713833977e-16
10
-3.237689405873402
20
1.1646059991919344
30
-1.5298348764519871e-16
10
-3.2607454409869372
20
1.1661284243360608
30
-3.2782175923971154e-16
10
-3.272318198708482
20
1.164630025446121
30
-3.2782175923971154e-16
10
-3.2942374665243372
20
1.1572815373465963
30
-3.2782175923971154e-16
10
-3.3043752537259672
20
1.1515010478561181
30
-3.2782175923971154e-16
10
-3.3218535320028959
20
1.1363828306552708
30
-3.2782175923971154e-16
10
-3.3290292327044653
20
1.12719242530459
30
2.1854783949314103e-17
10
-3.3382138380850845
20
1.109018136761031
30
3.7153132713833977e-16
10
-3.3409858052114156
20
1.1006166269238651
30
2.1854783949314103e-17
10
-3.3424749252968908
20
1.0919607015919299
30
2.1854783949314103e-17
0
ARC
5
127
100
AcDbEntity
8
0
100
AcDbCircle
10
-3.1249999987122767
20
0.72499990979892726
30
1.9669305554382312e-16
40
0.42656250000003448
210
-1.2470413108684513e-16
220
8.0352951952358092e-16
230
1
100
AcDbArc
50
98.901916292456562
51
99.919839268226895
0
ARC
5
128
100
AcDbEntity
8
0
100
AcDbCircle
10
-3.2540963834576768
20
1.0770782014410984
30
-1.5298348764519871e-16
40
0.093749999999999889
210
-6.4953523550957125e-17
220
1.8453641706309343e-17
230
1
100
AcDbArc
50
47.705190903797899
51
53.181770826983396
0
ARC
5
129
100
AcDbEntity
8
0
100
AcDbCircle
10
-3.1889248652706343
20
1.1641370075275375
30
-1.5298348764519883e-16
40
0.01500000000000045
210
7.7705568300956466e-17
220
1.8532116893187644e-17
230
1
100
AcDbArc
50
130.22961177566737
51
233.18177082698142
0
ARC
5
130
100
AcDbEntity
8
0
100
AcDbCircle
10
-3.1249999987122767
20
0.72499990979892726
30
1.9669305554382312e-16
40
0.45656249999995852
210
5.9259967271625317e-17
220
-1.1082430285624304e-17
230
1
100
AcDbArc
50
88.204866465780214
51
99.278434732365753
0
LINE
5
131
100
AcDbEntity
8
0
100
AcDbLine
10
-3.1106977834618723
20
1.1813383401827195
30
2.0090284557755201e-16
11
-3.1122945056622875
21
1.1513731463565566
31
2.1904581534941918e-17
0
ARC
5
132
100
AcDbEntity
8
0
100
AcDbCircle
10
-3.1249999987122767
20
0.72499990979892726
30
1.9669305554382312e-16
40
0.42656250000002244
210
6.2266388403967417e-17
220
8.1778695553923591e-16
230
1
100
AcDbArc
50
85.606506919178273
51
88.293148570002245
0
LINE
5
133
100
AcDbEntity
8
0
100
AcDbLine
10
-3.0923228392062034
20
1.1503089382157758
30
-1.5315380867428544e-16
11
-3.0907261170057874
21
1.1802741320419403
31
2.1804986363686277e-17
0
ARC
5
134
100
AcDbEntity
8
0
100
AcDbCircle
10
-3.1249999987122767
20
0.72499990979892726
30
1.9669305554382312e-16
40
0.45656249999995163
210
-1.0417974706065402e-18
220
-6.4788205952063197e-18
230
1
100
AcDbArc
50
74.621219322181744
51
85.694789023401114
0
ARC
5
135
100
AcDbEntity
8
0
100
AcDbCircle
10
-3.0147699977728997
20
1.1548570093783674
30
-1.5298348764519874e-16
40
0.014999999999999861
210
3.6508595143311924e-17
220
-1.1127645096340213e-16
230
1
100
AcDbArc
50
-59.282115337724086
51
43.67004371399058
0
ARC
5
136
100
AcDbEntity
8
0
100
AcDbCircle
10
-2.9592192696928268
20
1.0613654102382637
30
2.1854783949314103e-17
40
0.093750000000000111
210
-9.5874396317300736e-16
220
1.6209211311925257e-15
230
1
100
AcDbArc
50
120.71788466227525
51
126.19446458542707
0
ARC
5
137
100
AcDbEntity
8
0
100
AcDbCircle
10
-3.1249999987122767
20
0.72499990979892726
30
1.9669305554382312e-16
40
0.42656250000000739
210
2.6866320222106024e-16
220
7.5446349661678196e-16
230
1
100
AcDbArc
50
74.230395223584182
51
74.997739196728872
0
SPLINE
5
138
100
AcDbEntity
8
0
100
AcDbSpline
70
0
71
3
72
18
73
14
74
0
42
0.000000001
43
0.0000000001
44
0.0000000001
40
0.88866841231818272
40
0.88866841231818272
40
0.88866841231818272
40
0.88866841231818272
40
0.96714267102152496
40
0.96714267102152496
40
1.0549519150348543
40
1.0549519150348543
40
1.142908255601071
40
1.142908255601071
40
1.2310073189463502
40
1.2310073189463502
40
1.3191599089808597
40
1.3191599089808597
40
1.3575339183715303
40
1.3575339183715303
40
1.3575339183715303
40
1.3575339183715303
10
-2.8718576392511537
20
1.0683284874802736
30
2.1854783949314103e-17
10
-2.8726537376132755
20
1.0785772406256366
30
-1.5298348764519871e-16
10
-2.875230682514617
20
1.0886186524290453
30
-1.5298348764519871e-16
10
-2.884235230423664
20
1.1084959461688952
30
-3.2782175923971154e-16
10
-2.8909932979445703
20
1.1179642335252491
30
-3.2782175923971154e-16
10
-2.9077661399358905
20
1.1337989325153288
30
2.1854783949314103e-17
10
-2.9176265078064358
20
1.1400092789512708
30
-3.2782175923971154e-16
10
-2.9391870598087726
20
1.1483146816187466
30
2.1854783949314103e-17
10
-2.9506854341415583
20
1.150324166947394
30
2.1854783949314103e-17
10
-2.9738106764923318
20
1.1498231281510016
30
-1.5298348764519871e-16
10
-2.9852176595465916
20
1.1473146228585283
30
2.1854783949314103e-17
10
-3.0004365086785305
20
1.1406736891849774
30
-1.5298348764519871e-16
10
-3.0048698262682434
20
1.1382712648020277
30
-1.5298348764519871e-16
10
-3.0090732124869772
20
1.1355075792056393
30
1.9669305554382694e-16
0
ARC
5
139
100
AcDbEntity
8
0
100
AcDbCircle
10
-3.1249999987122767
20
0.72499990979892726
30
1.9669305554382312e-16
40
0.42656249999996843
210
5.4276625962794778e-16
220
6.2419347357021728e-16
230
1
100
AcDbArc
50
52.52867482866349
51
53.597978128546416
0
ARC
5
140
100
AcDbEntity
8
0
100
AcDbCircle
10
-2.9592192696928268
20
1.0613654102382637
30
2.1854783949314103e-17
40
0.093750000000000111
210
1.8909577437385308e-15
220
4.6121063507406602e-17
230
1
100
AcDbArc
50
1.3319494399385783
51
6.8085293631772243
0
ARC
5
141
100
AcDbEntity
8
0
100
AcDbCircle
10
-2.8512361887388002
20
1.0742579168865485
30
-3.2782175923971154e-16
40
0.014999999999999653
210
-5.4297061162925479e-17
220
-6.111097608746744e-18
230
1
100
AcDbArc
50
83.85637031184028
51
186.80852936317919
0
ARC
5
142
100
AcDbEntity
8
0
100
AcDbCircle
10
-3.1249999987122767
20
0.72499990979892726
30
1.9669305554382312e-16
40
0.4565624999999644
210
4.4277837796435282e-17
220
-2.612094713338928e-17
230
1
100
AcDbArc
50
41.831625001998688
51
52.905193268578259
0
LINE
5
143
100
AcDbEntity
8
0
100
AcDbLine
10
-2.7848116335770592
20
1.0295014576321779
30
1.8958411912511903e-16
11
-2.8076036012708006
21
1.0099825290889042
31
1.9683671111808028e-16
0
ARC
5
144
100
AcDbEntity
8
0
100
AcDbCircle
10
-3.1249999987122767
20
0.72499990979892726
30
1.9669305554382312e-16
40
0.42656249999993984
210
6.349633410292823e-16
220
5.2583743638005324e-16
230
1
100
AcDbArc
50
39.233265455398545
51
41.919907106222972
0
LINE
5
145
100
AcDbEntity
8
0
100
AcDbLine
10
-2.7945943234831501
20
0.9947917854782804
30
-1.5496910415809621e-16
11
-2.7718023557894043
21
1.0143107140215559
31
1.979153239664057e-16
0
ARC
5
146
100
AcDbEntity
8
0
100
AcDbCircle
10
-3.1249999987122767
20
0.72499990979892726
30
1.9669305554382312e-16
40
0.45656249999995957
210
-3.5175853921519118e-17
220
5.0303343558606722e-17
230
1
100
AcDbArc
50
28.247977858396265
51
39.32154755961956
0
ARC
5
147
100
AcDbEntity
8
0
100
AcDbCircle
10
-2.7377940253454183
20
0.94179316005125169
30
-1.5298348764519866e-16
40
0.014999999999999899
210
-1.11389642019088e-16
220
2.1991055110189252e-18
230
1
100
AcDbArc
50
254.34464319839344
51
357.29680225027113
0
ARC
5
148
100
AcDbEntity
8
0
100
AcDbCircle
10
-2.7671402414043897
20
0.83707753512822425
30
-1.5298348764519871e-16
40
0.093750000000000097
210
5.274582842181302e-17
220
-1.0139051081306343e-17
230
1
100
AcDbArc
50
74.344643198394976
51
79.821223121612334
0
ARC
5
149
100
AcDbEntity
8
0
100
AcDbCircle
10
-3.1249999987122767
20
0.72499990979892726
30
1.9669305554382312e-16
40
0.42656249999991375
210
7.4881057389759097e-16
220
4.6392769072374887e-16
230
1
100
AcDbArc
50
27.74271448739076
51
28.624497732954225
0
SPLINE
5
150
100
AcDbEntity
8
0
100
AcDbSpline
70
0
71
3
72
20
73
16
74
0
42
0.000000001
43
0.0000000001
44
0.0000000001
40
0.69863124451230108
40
0.69863124451230108
40
0.69863124451230108
40
0.69863124451230108
40
0.70354631770200415
40
0.70354631770200415
40
0.79141744112757195
40
0.79141744112757195
40
0.87919556190718118
40
0.87919556190718118
40
0.96698031711935317
40
0.96698031711935317
40
1.0548705294007914
40
1.0548705294007914
40
1.1428983548157179
40
1.1428983548157179
40
1.1644436399874689
40
1.1644436399874689
40
1.1644436399874689
40
1.1644436399874689
10
-2.701806013233929
20
0.77850147109471068
30
-1.5298348764519871e-16
10
-2.7013775515341107
20
0.77898274990701832
30
-3.2782175923971154e-16
10
-2.7009541414954592
20
0.77946893527756056
30
1.9669305554382694e-16
10
-2.6930581234714381
20
0.78873838118127337
30
2.1854783949314103e-17
10
-2.687367804443217
20
0.79889347828083135
30
2.1854783949314103e-17
10
-2.6802073534786972
20
0.82080395604517342
30
-3.2782175923971154e-16
10
-2.6788016440359135
20
0.83234682558877171
30
-3.2782175923971154e-16
10
-2.6804907678125804
20
0.85532449883299666
30
-3.2782175923971154e-16
10
-2.6835696926910257
20
0.86653891264801008
30
-3.2782175923971154e-16
10
-2.6938519482917656
20
0.88717375336809667
30
2.1854783949314103e-17
10
-2.7009620408213317
20
0.89639505948770104
30
2.1854783949314103e-17
10
-2.7183248516654746
20
0.91161155020513218
30
-1.5298348764519871e-16
10
-2.7284173214643874
20
0.91745694438391667
30
-1.5298348764519871e-16
10
-2.7420196984234066
20
0.92212206872255187
30
1.9669305554382694e-16
10
-2.7447319245770094
20
0.92290945304458938
30
-1.5298348764519871e-16
10
-2.7474722076998055
20
0.9235656002376913
30
-1.5298348764519871e-16
0
ARC
5
151
100
AcDbEntity
8
0
100
AcDbCircle
10
-3.1249999987122767
20
0.72499990979892726
30
1.9669305554382312e-16
40
0.42656249999986462
210
9.2615462935999974e-16
220
1.00264432061568e-16
230
1
100
AcDbArc
50
6.1554333648914028
51
7.205294197846916
0
ARC
5
152
100
AcDbEntity
8
0
100
AcDbCircle
10
-2.7671402414043897
20
0.83707753512822425
30
-1.5298348764519871e-16
40
0.093749999999999764
210
3.2387499987588897e-16
220
-3.9554361084522487e-16
230
1
100
AcDbArc
50
314.95870797619904
51
320.43528789934919
0
ARC
5
153
100
AcDbEntity
8
0
100
AcDbCircle
10
-2.6833042487375325
20
0.76780929685437649
30
-3.2782175923971164e-16
40
0.014999999999999639
210
-7.4360718823934098e-18
220
8.5511460058882345e-17
230
1
100
AcDbArc
50
37.483128845437086
51
140.43528789934919
0
ARC
5
154
100
AcDbEntity
8
0
100
AcDbCircle
10
-3.1249999987122767
20
0.72499990979892726
30
1.9669305554382312e-16
40
0.45656250000010129
210
5.6729504098336511e-17
220
-1.1309399554799804e-19
230
1
100
AcDbArc
50
0
51
6.5319518047186911
0
LINE
5
155
100
AcDbEntity
8
0
100
AcDbLine
10
-2.6684374987121755
20
0.72499990979892925
30
1.7079249132892061e-16
11
-2.6684374987121786
21
0.70132669029493688
31
-1.5298348764519832e-16
0
LINE
5
156
100
AcDbEntity
8
0
100
AcDbLine
10
-2.6684374987121786
20
0.70132669029493688
30
-1.5298348764519832e-16
11
-2.7005071117478159
21
0.69950518387866634
31
-3.2234465731415978e-16
0
LINE
5
157
100
AcDbEntity
8
0
100
AcDbLine
10
-2.7005071117478159
20
0.69950518387866634
30
-3.2234465731415978e-16
11
-2.7005071117478159
21
0.67947294914187983
31
-1.5298348764519871e-16
0
LINE
5
158
100
AcDbEntity
8
0
100
AcDbLine
10
-2.7005071117478159
20
0.67947294914187983
30
-1.5298348764519871e-16
11
-2.6684374987121817
21
0.68129445555815027
31
-1.5846058957075052e-16
0
LINE
5
159
100
AcDbEntity
8
0
100
AcDbLine
10
-2.6684374987121817
20
0.68129445555815027
30
-1.5846058957075052e-16
11
-2.6684374987121906
21
0.62130478981502357
31
1.9669305554382766e-16
0
ARC
5
160
100
AcDbEntity
8
0
100
AcDbCircle
10
-2.6834374987121898
20
0.6213047898150259
30
2.1854783949314069e-17
40
0.015000000000000076
210
-1.1102230246251711e-16
220
2.3826064528003372e-29
230
1
100
AcDbArc
50
232.26074654226358
51
360
0
ARC
5
161
100
AcDbEntity
8
0
100
AcDbCircle
10
-2.7499999987121888
20
0.53530481252578344
30
-3.2782175923971154e-16
40
0.093750000000000319
210
-2.2359548523838575e-15
220
-2.9722293629979825e-15
230
1
100
AcDbArc
50
52.260746542260485
51
58.134696501021878
0
LINE
5
162
100
AcDbEntity
8
0
100
AcDbLine
10
-2.7005071117478159
20
0.6149258941557878
30
-3.3305200457939366e-16
11
-2.7005071117478154
21
0.60855530802891145
31
-3.2782175923971154e-16
0
SPLINE
5
163
100
AcDbEntity
8
0
100
AcDbSpline
70
0
71
3
72
16
73
12
74
0
42
0.000000001
43
0.0000000001
44
0.0000000001
40
0.060445526308665613
40
0.060445526308665613
40
0.060445526308665613
40
0.060445526308665613
40
0.087845027214813173
40
0.087845027214813173
40
0.17566209589222559
40
0.17566209589222559
40
0.26352091743249134
40
0.26352091743249134
40
0.35146637675990217
40
0.35146637675990217
40
0.39670269934387042
40
0.39670269934387042
40
0.39670269934387042
40
0.39670269934387042
10
-2.6740217143157397
20
0.49137786255445087
30
-3.2782175923971154e-16
10
-2.6722327369101473
20
0.49448011024542676
30
-1.5298348764519871e-16
10
-2.6706300854411649
20
0.49769433543094033
30
1.9669305554382694e-16
10
-2.6647212830910014
20
0.51161219814822334
30
-3.2782175923971154e-16
10
-2.6623330131454432
20
0.52299796830456935
30
-1.5298348764519871e-16
10
-2.662053595366177
20
0.5460508858962928
30
1.9669305554382694e-16
10
-2.6641672299504942
20
0.55749683684232354
30
2.1854783949314103e-17
10
-2.6726637081175966
20
0.57894716086831433
30
-3.2782175923971154e-16
10
-2.6789694655519432
20
0.58874496686970523
30
1.9669305554382694e-16
10
-2.6910914487994537
20
0.60133672002733152
30
-1.5298348764519871e-16
10
-2.6956256345666878
20
0.60518737372216824
30
-1.5298348764519871e-16
10
-2.7005071117458228
20
0.6085553080317998
30
-3.2782175923971154e-16
0
LINE
5
164
100
AcDbEntity
8
0
100
AcDbLine
10
-2.6740217143157397
20
0.49137786255445087
30
-3.2782175923971154e-16
11
-2.5409645656413993
21
0.49137786255483884
31
2.1854783949314103e-17
0
LINE
5
165
100
AcDbEntity
8
0
100
AcDbLine
10
-2.5409645656413993
20
0.49137786255483884
30
2.1854783949314103e-17
11
-2.5409645656413988
21
0.93590094711686678
31
1.9669305554382694e-16
0
ARC
5
166
100
AcDbEntity
8
0
100
AcDbCircle
10
-2.8756102349327373
20
0.93590094711686678
30
-1.5298348764519883e-16
40
0.33464566929133843
210
-1.0449157878825011e-15
220
2.1874155249093763e-17
230
1
100
AcDbArc
50
0
51
85.000000000000043
0
LINE
5
167
100
AcDbEntity
8
0
100
AcDbLine
10
-2.8464439430683637
20
1.2692731886042621
30
-1.5543704346845131e-16
11
-3.778175811318115
21
1.350789164521945
31
1.0867397778227079e-16
0
SPLINE
5
168
100
AcDbEntity
8
0
100
AcDbSpline
70
0
71
3
72
16
73
12
74
0
42
0.000000001
43
0.0000000001
44
0.0000000001
40
0.44017479503424184
40
0.44017479503424184
40
0.44017479503424184
40
0.44017479503424184
40
0.51106622415043224
40
0.51106622415043224
40
0.59622823827657589
40
0.59622823827657589
40
0.68137285418490401
40
0.68137285418490401
40
0.76651747009323212
40
0.76651747009323212
40
0.83311328866791368
40
0.83311328866791368
40
0.83311328866791368
40
0.83311328866791368
10
-3.8074149664561809
20
1.211045261587929
30
2.1854783949314103e-17
10
-3.7986459349318453
20
1.2153503930267311
30
3.7153132713833977e-16
10
-3.7898689898983626
20
1.2217206457347018
30
2.1854783949314103e-17
10
-3.7753860819084357
20
1.2362000598290865
30
-3.2782175923971154e-16
10
-3.7679335913408134
20
1.2473501471196939
30
2.1854783949314103e-17
10
-3.759378924916871
20
1.2679981013066635
30
-3.2782175923971154e-16
10
-3.756762285700523
20
1.2811489103358986
30
2.1854783949314103e-17
10
-3.756762285700523
20
1.3034965785533075
30
2.1854783949314103e-17
10
-3.759378924916871
20
1.3166473875825426
30
-3.2782175923971154e-16
10
-3.7670009934162794
20
1.3350443785797919
30
3.7153132713833977e-16
10
-3.7721858804219277
20
1.3437078874883417
30
-3.2782175923971154e-16
10
-3.7781758113719457
20
1.3507891644772407
30
3.7153132713833977e-16
0
LINE
5
169
100
AcDbEntity
8
0
100
AcDbLine
10
-3.8074149664561809
20
1.211045261587929
30
2.1854783949314103e-17
11
-3.8074149664561823
21
1.0612540082520845
31
3.7153132713833977e-16
0
ARC
5
170
100
AcDbEntity
8
0
100
AcDbCircle
10
-3.8271000058262605
20
1.0612540082520843
30
-3.2782175923971154e-16
40
0.019685039370078667
210
5.5511151231257839e-17
220
0
230
1
100
AcDbArc
50
-90
51
0
0
LINE
5
171
100
AcDbEntity
8
0
100
AcDbLine
10
-3.8271000058262605
20
1.0415689688820056
30
-3.2782175923971154e-16
11
-3.8664700845664179
21
1.0415689688820058
31
-3.250899112460473e-16
0
ARC
5
172
100
AcDbEntity
8
0
100
AcDbCircle
10
-3.8664700845664179
20
1.0612540082520843
30
2.1854783949314103e-17
40
0.019685039370079017
210
5.5511151231257087e-17
220
-3.8518598887744779e-33
230
1
100
AcDbArc
50
180
51
270
0
LINE
5
173
100
AcDbEntity
8
0
100
AcDbLine
10
-3.8861551239364971
20
1.0612540082520843
30
2.294752314677981e-17
11
-3.8861551239364971
21
1.2105014250726376
31
2.1854783949314103e-17
0
SPLINE
5
174
100
AcDbEntity
8
0
100
AcDbSpline
70
0
71
3
72
17
73
13
74
0
42
0.000000001
43
0.0000000001
44
0.0000000001
40
-0.098642275554947728
40
-0.098642275554947728
40
-0.098642275554947728
40
-0.098642275554947728
40
-0.085145304849727488
40
-0.085145304849727488
40
0
40
0
40
0
40
0.085145304849727516
40
0.085145304849727516
40
0.17030645200088229
40
0.17030645200088229
40
0.24423568676405427
40
0.24423568676405427
40
0.24423568676405427
40
0.24423568676405427
10
-3.9288045839275583
20
1.3319388861768868
30
2.1854783949314103e-17
10
-3.9296167617840201
20
1.3302701816783991
30
3.7153132713833977e-16
10
-3.930362422805338
20
1.328607016353929
30
3.7153132713833977e-16
10
-3.935317224463736
20
1.3166476000138227
30
-3.2782175923971154e-16
10
-3.9379338063967504
20
1.3034966689655647
30
2.1854783949314103e-17
10
-3.9379338063967504
20
1.292322744444603
30
2.1854783949314103e-17
10
-3.9379338063967504
20
1.2811488199236416
30
2.1854783949314103e-17
10
-3.935317224463736
20
1.2679978888753833
30
-3.2782175923971154e-16
10
-3.9267627311081985
20
1.2473498882749683
30
2.1854783949314103e-17
10
-3.9193104516996669
20
1.2361998240714009
30
-3.2782175923971154e-16
10
-3.9045458306497642
20
1.2214384904819617
30
-3.2782175923971154e-16
10
-3.8952817903969654
20
1.2148267723898218
30
2.1854783949314103e-17
10
-3.8861551239364971
20
1.2105014250726376
30
2.1854783949314103e-17
0
SPLINE
5
175
100
AcDbEntity
8
0
100
AcDbSpline
70
0
71
3
72
18
73
14
74
0
42
0.000000001
43
0.0000000001
44
0.0000000001
40
0.074061493928429867
40
0.074061493928429867
40
0.074061493928429867
40
0.074061493928429867
40
0.092582396694919078
40
0.092582396694919078
40
0.1110998935929864
40
0.1110998935929864
40
0.12961322851800433
40
0.12961322851800433
40
0.14812310295639425
40
0.14812310295639425
40
0.16663297739478372
40
0.16663297739478372
40
0.16956707725655695
40
0.16956707725655695
40
0.16956707725655695
40
0.16956707725655695
10
-3.9465121796131633
20
1.3602361302713752
30
2.1854783949314103e-17
10
-3.9440816149456457
20
1.3602361302713752
30
-3.2782175923971154e-16
10
-3.9412209513635061
20
1.3596672611316509
30
-3.2782175923971154e-16
10
-3.9367301265971939
20
1.3578074960855022
30
2.1854783949314103e-17
10
-3.9343052384817332
20
1.3561876820896266
30
3.7153132713833977e-16
10
-3.9308685379000803
20
1.3527517443159542
30
3.7153132713833977e-16
10
-3.929248472382469
20
1.3503278125397067
30
3.7153132713833977e-16
10
-3.9273887934028386
20
1.3458391098484956
30
3.7153132713833977e-16
10
-3.9268199682735587
20
1.3429802082816626
30
2.1854783949314103e-17
10
-3.9268199682735587
20
1.3381219735209304
30
2.1854783949314103e-17
10
-3.9273887934028386
20
1.3352630719540977
30
3.7153132713833977e-16
10
-3.9284659260699262
20
1.3326631994199101
30
3.7153132713833977e-16
10
-3.928628025046939
20
1.3323016448953047
30
2.1854783949314103e-17
10
-3.9288045839275583
20
1.3319388861768868
30
2.1854783949314103e-17
0
LINE
5
176
100
AcDbEntity
8
0
100
AcDbLine
10
-3.9465121796131633
20
1.3602361302713752
30
2.1854783949314103e-17
11
-4.0318027797345772
21
1.3602361302713757
31
3.2782175923971149e-17
0
ARC
5
177
100
AcDbEntity
8
0
100
AcDbCircle
10
-4.0318027797345772
20
1.3307085712162565
30
2.1854783949314017e-17
40
0.029527559055119227
210
4.8712190580272444e-17
220
-3.7007434154170866e-16
230
1
100
AcDbArc
50
90
51
168.27449136691965
0
ARC
5
178
100
AcDbEntity
8
0
100
AcDbCircle
10
-3.846785045196345
20
1.2923073281306949
30
2.1854783949313743e-17
40
0.21848844803528858
210
-2.8533580163218467e-18
220
-4.9668141072303772e-17
230
1
100
AcDbArc
50
168.27449136692093
51
207.08182469041697
0
ARC
5
179
100
AcDbEntity
8
0
100
AcDbCircle
10
-3.7994692318135956
20
1.1812510455450631
30
2.1854783949315456e-17
40
0.2421259842519729
210
-5.1466074146314615e-17
220
-9.0666932553598759e-17
230
1
100
AcDbArc
50
177.25712248617398
51
214.32390687007043
0
LINE
5
180
100
AcDbEntity
8
0
100
AcDbLine
10
-3.999432145172531
20
1.0447232991672897
30
-1.7462474382535266e-17
11
-3.8097907365914807
21
0.76696841373594127
31
2.3899006688275133e-17
0
LINE
5
181
100
AcDbEntity
8
0
100
AcDbLine
10
-3.8097907365914807
20
0.76696841373594127
30
2.3899006688275133e-17
11
-3.8097907365914807
21
0.63901565783042924
31
-3.2782175923971154e-16
0
ARC
5
182
100
AcDbEntity
8
0
100
AcDbCircle
10
-3.66215294131589
20
0.63901565783042913
30
-3.2782175923971173e-16
40
0.14763779527559054
210
1.3147681753683534e-30
220
1.0187564043514404e-30
230
1
100
AcDbArc
50
180
51
270.00000000000034
0
LINE
5
183
100
AcDbEntity
8
0
100
AcDbLine
10
-3.6621529413158891
20
0.49137786255483934
30
-3.2782175923971149e-16
11
-3.5814081416284016
21
0.49137786255483906
31
1.6391087961985574e-17
0
ARC
5
184
100
AcDbEntity
8
0
100
AcDbCircle
10
-3.5665624987123485
20
0.48923149669388732
30
2.1854783949314103e-17
40
0.014999999999999961
210
1.9193332491444023e-16
220
2.4417189811431437e-16
230
1
100
AcDbArc
50
52.260746542274184
51
171.77324786346568
0
CIRCLE
5
185
100
AcDbEntity
8
0
100
AcDbCircle
10
-3.6796418111341653
20
0.74114165146895594
30
-3.2782175923971154e-16
40
0.039370078740157341
210
-2.7312314381257027e-50
220
2.735283414103814e-81
230
1
0
CIRCLE
5
186
100
AcDbEntity
8
0
100
AcDbCircle
10
-3.6796418111341653
20
0.83956684831934958
30
-3.2782175923971154e-16
40
0.039370078740157341
210
-2.7312314381257027e-50
220
2.735283414103814e-81
230
1
0
CIRCLE
5
187
100
AcDbEntity
8
0
100
AcDbCircle
10
-3.6796418111341653
20
0.93799204516974333
30
-3.2782175923971154e-16
40
0.039370078740157341
210
-2.7312314381257027e-50
220
2.735283414103814e-81
230
1
0
ENDSEC
0
SECTION
2
OBJECTS
0
DICTIONARY
5
C
100
AcDbDictionary
3
ACAD_GROUP
350
D
3
ACAD_MLINESTYLE
350
17
0
DICTIONARY
5
D
100
AcDbDictionary
0
DICTIONARY
5
1A
330
C
100
AcDbDictionary
0
DICTIONARY
5
17
100
AcDbDictionary
0
ENDSEC
0
EOF
