0
SECTION
2
HEADER
9
$INSUNITS
70
1
9
$ACADVER
1
AC1014
9
$HANDSEED
5
FFFF
0
ENDSEC
0
SECTION
2
TABLES
0
TABLE
2
VPORT
5
8
100
AcDbSymbolTable
0
ENDTAB
0
TABLE
2
LTYPE
5
5
100
AcDbSymbolTable
0
LTYPE
5
14
100
AcDbSymbolTableRecord
100
AcDbLinetypeTableRecord
2
BYBLOCK
70
0
0
LTYPE
5
15
100
AcDbSymbolTableRecord
100
AcDbLinetypeTableRecord
2
BYLAYER
70
0
0
ENDTAB
0
TABLE
2
LAYER
5
2
100
AcDbSymbolTable
70
2
0
LAYER
5
50
100
AcDbSymbolTableRecord
100
AcDbLayerTableRecord
2
0
70
0
6
CONTINUOUS
0
ENDTAB
0
TABLE
2
STYLE
5
3
100
AcDbSymbolTable
70
1
0
STYLE
5
11
100
AcDbSymbolTableRecord
100
AcDbTextStyleTableRecord
2
STANDARD
70
0
0
ENDTAB
0
TABLE
2
VIEW
5
6
100
AcDbSymbolTable
70
0
0
ENDTAB
0
TABLE
2
UCS
5
7
100
AcDbSymbolTable
70
0
0
ENDTAB
0
TABLE
2
APPID
5
9
100
AcDbSymbolTable
70
2
0
APPID
5
12
100
AcDbSymbolTableRecord
100
AcDbRegAppTableRecord
2
ACAD
70
0
0
ENDTAB
0
TABLE
2
DIMSTYLE
5
A
100
AcDbSymbolTable
70
1
0
ENDTAB
0
TABLE
2
BLOCK_RECORD
5
1
100
AcDbSymbolTable
70
1
0
BLOCK_RECORD
5
1F
100
AcDbSymbolTableRecord
100
AcDbBlockTableRecord
2
*MODEL_SPACE
0
BLOCK_RECORD
5
1B
100
AcDbSymbolTableRecord
100
AcDbBlockTableRecord
2
*PAPER_SPACE
0
ENDTAB
0
ENDSEC
0
SECTION
2
BLOCKS
0
BLOCK
5
20
100
AcDbEntity
100
AcDbBlockBegin
2
*MODEL_SPACE
0
ENDBLK
5
21
100
AcDbEntity
100
AcDbBlockEnd
0
BLOCK
5
1C
100
AcDbEntity
100
AcDbBlockBegin
2
*PAPER_SPACE
0
ENDBLK
5
1D
100
AcDbEntity
100
AcDbBlockEnd
0
ENDSEC
0
SECTION
2
ENTITIES
0
CIRCLE
5
100
100
AcDbEntity
8
0
100
AcDbCircle
10
-3.6796418120434522
20
0.83956684831934958
30
3.4967654318902565e-16
40
0.039370078740157334
210
-1.1102230246251565e-16
220
3.8518598887746693e-34
230
1
0
CIRCLE
5
101
100
AcDbEntity
8
0
100
AcDbCircle
10
-3.6796418120434522
20
0.93799204516974333
30
3.4967654318902565e-16
40
0.039370078740157334
210
-1.1102230246251565e-16
220
3.8518598887746693e-34
230
1
0
LINE
5
102
100
AcDbEntity
8
0
100
AcDbLine
10
-3.5494928865861373
20
0.66225691062063863
30
0
11
-3.5812967087537722
21
0.66310252591429697
31
2.7339225158447643e-18
0
LINE
5
103
100
AcDbEntity
8
0
100
AcDbLine
10
-3.5812967087537722
20
0.66310252591429697
30
2.7339225158447643e-18
11
-3.5815624996215725
21
0.66310252591429697
31
2.1342562450502054e-20
0
LINE
5
104
100
AcDbEntity
8
0
100
AcDbLine
10
-3.5815624996215725
20
0.66310252591429697
30
2.1342562450502054e-20
11
-3.5815624996215663
21
0.72319481913485928
31
2.2387040003162651e-32
0
ARC
5
105
100
AcDbEntity
8
0
100
AcDbCircle
10
-3.5665624996215657
20
0.72319481913485717
30
4.1463125082445676e-45
40
0.014999999999999984
210
2.5765567484804237e-31
220
6.438383804086514e-30
230
1
100
AcDbArc
50
46.67477589338629
51
180
0
ARC
5
106
100
AcDbEntity
8
0
100
AcDbCircle
10
-3.49194491775439
20
0.80230726427653143
30
3.4967654318902565e-16
40
0.093749999999995698
210
-2.557992560638853e-15
220
-2.7145358787179051e-15
230
1
100
AcDbArc
50
226.67477589337946
51
232.13195614431044
0
LINE
5
107
100
AcDbEntity
8
0
100
AcDbLine
10
-3.5494928865861382
20
0.7282985230134873
30
3.4431439701665656e-16
11
-3.5494928865861373
21
0.73403182125283928
31
3.4967654318902565e-16
0
SPLINE
5
108
100
AcDbEntity
8
0
100
AcDbSpline
70
0
71
3
72
18
73
14
74
0
42
0.000000001
43
0.0000000001
44
0.0000000001
40
0.0050468815755955135
40
0.0050468815755955135
40
0.0050468815755955135
40
0.0050468815755955135
40
0.088003449622076457
40
0.088003449622076457
40
0.17599130429878018
40
0.17599130429878018
40
0.26392846152015875
40
0.26392846152015875
40
0.35180861064788482
40
0.35180861064788482
40
0.42268612264194844
40
0.42268612264194844
40
0.48658190855897077
40
0.48658190855897077
40
0.48658190855897077
40
0.48658190855897077
10
-3.519875139187433
20
0.88633555545116993
30
0
10
-3.5302243764758416
20
0.88299336844237297
30
3.4967654318902565e-16
10
-3.5398771527606412
20
0.87777395187978202
30
3.4967654318902565e-16
10
-3.5573292411501418
20
0.86367816238583861
30
3.4967654318902565e-16
10
-3.5648092829380791
20
0.85473757756235935
30
3.4967654318902565e-16
10
-3.5759157676279409
20
0.83449758843198374
30
3.4967654318902565e-16
10
-3.5794382446819357
20
0.82339300112520275
30
3.4967654318902565e-16
10
-3.5820247017414784
20
0.80046575557619448
30
0
10
-3.5810667616664524
20
0.78886323035547012
30
0
10
-3.5753660307368915
20
0.7688245428860252
30
3.4967654318902565e-16
10
-3.5714269485804593
20
0.76033516897977904
30
0
10
-3.5615619468610382
20
0.74565565077692642
30
0
10
-3.5559225768385652
20
0.73939967490974623
30
0
10
-3.5494928865861382
20
0.73403182125283983
30
0
0
ARC
5
109
100
AcDbEntity
8
0
100
AcDbCircle
10
-3.12499999962162
20
0.72499990979904627
30
0
40
0.42656249999990764
210
-9.1193122426440188e-17
220
6.66852729242875e-17
230
1
100
AcDbArc
50
156.8684681222135
51
157.77636036856211
0
ARC
5
110
100
AcDbEntity
8
0
100
AcDbCircle
10
-3.49194491775439
20
0.80230726427653143
30
3.4967654318902565e-16
40
0.093749999999999958
210
-1.143444929797233e-15
220
4.0731964911828337e-15
230
1
100
AcDbArc
50
105.67174273367989
51
109.52854230853849
0
ARC
5
111
100
AcDbEntity
8
0
100
AcDbCircle
10
-3.5282974764172939
20
0.90480142986004231
30
3.4967654318902565e-16
40
0.01499999999999972
210
-1.2319182191848813e-16
220
1.2752471801066683e-17
230
1
100
AcDbArc
50
155.97132371739551
51
289.52854230854132
0
ARC
5
112
100
AcDbEntity
8
0
100
AcDbCircle
10
-3.12499999962162
20
0.72499990979904627
30
0
40
0.45656249999966436
210
-6.2002552099582801e-17
220
-5.1997985334826894e-18
230
1
100
AcDbArc
50
146.17141829555055
51
155.97132371743851
0
LINE
5
113
100
AcDbEntity
8
0
100
AcDbLine
10
-3.504269600705193
20
0.97917285505453722
30
-2.2194035092981757e-17
11
-3.4797138735966167
21
0.96192528626982876
31
-4.2312933874225568e-20
0
ARC
5
114
100
AcDbEntity
8
0
100
AcDbCircle
10
-3.12499999962162
20
0.72499990979904627
30
0
40
0.42656249999990808
210
-3.296237132939569e-17
220
-4.7118356361970297e-17
230
1
100
AcDbArc
50
143.57305874894371
51
146.25970039976863
0
LINE
5
115
100
AcDbEntity
8
0
100
AcDbLine
10
-3.4682184468375743
20
0.97829156757095315
30
6.213926901800497e-19
11
-3.4927741739461422
21
0.99553913635565539
31
4.2312933874209698e-20
0
ARC
5
116
100
AcDbEntity
8
0
100
AcDbCircle
10
-3.12499999962162
20
0.72499990979904627
30
0
40
0.45656249999961313
210
4.4715822718471887e-17
220
-3.5346781131387088e-17
230
1
100
AcDbArc
50
133.86143543123475
51
143.66134085316972
0
ARC
5
117
100
AcDbEntity
8
0
100
AcDbCircle
10
-3.430966022740964
20
1.0433742713648628
30
4.2309799565672344e-32
40
0.015000000000000142
210
-1.1695372613181542e-16
220
3.913116871613727e-17
230
1
100
AcDbArc
50
0.30421684027442958
51
133.86143543120929
0
ARC
5
118
100
AcDbEntity
8
0
100
AcDbCircle
10
-3.3222175556609526
20
1.0439516860752323
30
0
40
0.093750000000000194
210
1.8678035695359298e-17
220
2.4802598581033449e-19
230
1
100
AcDbArc
50
180.30421684027323
51
184.16101641506202
0
ARC
5
119
100
AcDbEntity
8
0
100
AcDbCircle
10
-3.12499999962162
20
0.72499990979904627
30
0
40
0.42656249999990825
210
-7.8413809487988787e-17
220
1.3216879662512341e-18
230
1
100
AcDbArc
50
132.2438238702926
51
132.96429102644731
0
SPLINE
5
120
100
AcDbEntity
8
0
100
AcDbSpline
70
0
71
3
72
18
73
14
74
0
42
0.000000001
43
0.0000000001
44
0.0000000001
40
0.027726060046700501
40
0.027726060046700501
40
0.027726060046700501
40
0.027726060046700501
40
0.087936733499256195
40
0.087936733499256195
40
0.17596684609614438
40
0.17596684609614438
40
0.2640354222857062
40
0.2640354222857062
40
0.35206817769486864
40
0.35206817769486864
40
0.44001415700459157
40
0.44001415700459157
40
0.50122804530015808
40
0.50122804530015808
40
0.50122804530015808
40
0.50122804530015808
10
-3.281287449969339
20
1.121900148237069
30
3.4967654318902565e-16
10
-3.2882269980441379
20
1.1256115729751062
30
3.4967654318902565e-16
10
-3.2956445204087181
20
1.1283903603385026
30
6.9935308637805131e-16
10
-3.314609556799899
20
1.132726632887652
30
1.049029629567077e-15
10
-3.3262674359919071
20
1.1330775320805693
30
0
10
-3.3490658916470468
20
1.1292923586215977
30
0
10
-3.3599893921523587
20
1.1251903280890876
30
0
10
-3.3796431752157097
20
1.1130315632965968
30
3.4967654318902565e-16
10
-3.3881869991970279
20
1.1050923206378145
30
3.4967654318902565e-16
10
-3.4017397007438808
20
1.0863927945204304
30
3.4967654318902565e-16
10
-3.406622328650772
20
1.0758142192641089
30
6.9935308637805131e-16
10
-3.4112278352373315
20
1.0567892191403272
30
0
10
-3.4120426891423921
20
1.0487765796084296
30
0
10
-3.4117724284358428
20
1.040780118929052
30
0
0
ARC
5
121
100
AcDbEntity
8
0
100
AcDbCircle
10
-3.12499999962162
20
0.72499990979904627
30
0
40
0.42656249999990792
210
4.22793294410223e-17
220
4.2981499056893799e-17
230
1
100
AcDbArc
50
110.49522665839959
51
111.49303755909236
0
ARC
5
122
100
AcDbEntity
8
0
100
AcDbCircle
10
-3.3222175556609526
20
1.0439516860752323
30
0
40
0.093750000000000097
210
6.0216836334125875e-17
220
9.8957398681118438e-17
230
1
100
AcDbArc
50
59.298501269784722
51
63.155300844544193
0
ARC
5
123
100
AcDbEntity
8
0
100
AcDbCircle
10
-3.2731089101366857
20
1.1409821113797307
30
3.578893439963682e-32
40
0.015000000000000029
210
-7.4596304014447913e-17
220
-2.6914815808316256e-17
230
1
100
AcDbArc
50
109.59808225360642
51
243.15530084454514
0
ARC
5
124
100
AcDbEntity
8
0
100
AcDbCircle
10
-3.12499999962162
20
0.72499990979904627
30
0
40
0.45656249999958021
210
5.2295316974335423e-17
220
1.6166282986935404e-17
230
1
100
AcDbArc
50
99.798176831716361
51
109.59808225360642
0
LINE
5
125
100
AcDbEntity
8
0
100
AcDbLine
10
-3.2026969580876696
20
1.1749026760174721
30
-3.2100683643682668e-18
11
-3.19823919343311
21
1.1452279275418125
31
2.686808448408818e-19
0
ARC
5
126
100
AcDbEntity
8
0
100
AcDbCircle
10
-3.12499999962162
20
0.72499990979904627
30
0
40
0.42656249999990781
210
-1.1014690282020261e-16
220
-1.6367702376271832e-17
230
1
100
AcDbArc
50
97.199817285111152
51
99.886458935936162
0
LINE
5
127
100
AcDbEntity
8
0
100
AcDbLine
10
-3.1784611074922173
20
1.1481990075667752
30
1.0382214248858942e-18
11
-3.18291887214678
21
1.1778737560424397
31
1.7456959074967197e-16
0
ARC
5
128
100
AcDbEntity
8
0
100
AcDbCircle
10
-3.12499999962162
20
0.72499990979904627
30
0
40
0.45656249999960896
210
5.330214974849348e-17
220
1.8354463174021298e-17
230
1
100
AcDbArc
50
87.488193967434995
51
97.288099389335287
0
ARC
5
129
100
AcDbEntity
8
0
100
AcDbCircle
10
-3.1056484151148283
20
1.1661381620318143
30
1.8046115226935516e-32
40
0.014999999999999875
210
1.1076358425213846e-16
220
-1.0784962562969857e-17
230
1
100
AcDbArc
50
-46.069024623443568
51
87.488193967458798
0
ARC
5
130
100
AcDbEntity
8
0
100
AcDbCircle
10
-3.030198614183615
20
1.0878190070348384
30
1.7483827159451283e-16
40
0.093750000000000389
210
-1.3044986617319686e-15
220
1.3516554441491102e-15
230
1
100
AcDbArc
50
133.93097537655598
51
137.78777495134926
0
ARC
5
131
100
AcDbEntity
8
0
100
AcDbCircle
10
-3.12499999962162
20
0.72499990979904627
30
0
40
0.42656249999990792
210
5.5868039088668912e-17
220
4.4472432491806358e-19
230
1
100
AcDbArc
50
85.844376012818458
51
86.591049562643605
0
SPLINE
5
132
100
AcDbEntity
8
0
100
AcDbSpline
70
0
71
3
72
18
73
14
74
0
42
0.000000001
43
0.0000000001
44
0.0000000001
40
0.05439147530190358
40
0.05439147530190358
40
0.05439147530190358
40
0.05439147530190358
40
0.087748664162655352
40
0.087748664162655352
40
0.17553122533188614
40
0.17553122533188614
40
0.26345089855231274
40
0.26345089855231274
40
0.35152372362502915
40
0.35152372362502915
40
0.43967361930009974
40
0.43967361930009974
40
0.52428682003741112
40
0.52428682003741112
40
0.52428682003741112
40
0.52428682003741112
10
-2.9459692731526599
20
1.1121737278525923
30
1.7483827159451283e-16
10
-2.9471657765620218
20
1.1163644041046246
30
1.7483827159451283e-16
10
-2.9486728172793675
20
1.1204702881607362
30
1.7483827159451283e-16
10
-2.9552432184285324
20
1.1349468092808708
30
0
10
-2.9620059548259139
20
1.144407601682583
30
5.2451481478353848e-16
10
-2.9787841729885329
20
1.1602252564565347
30
5.2451481478353848e-16
10
-2.9886447162304042
20
1.1664264706122027
30
-1.7483827159451283e-16
10
-3.0102033011065568
20
1.1747156174936753
30
3.4967654318902565e-16
10
-3.0216996899095525
20
1.1767176232514931
30
0
10
-3.0448215204587896
20
1.176204067687348
30
1.7483827159451283e-16
10
-3.056227197089882
20
1.1736894350915015
30
1.7483827159451283e-16
10
-3.0770035727647072
20
1.1646110241679599
30
3.4967654318902565e-16
10
-3.0862508062863054
20
1.1582953192776368
30
3.4967654318902565e-16
10
-3.0940888291339212
20
1.1504409350249318
30
0
0
ARC
5
133
100
AcDbEntity
8
0
100
AcDbCircle
10
-3.12499999962162
20
0.72499990979904627
30
0
40
0.42656249999990797
210
-3.7830684588514975e-17
220
4.6747332077787119e-17
230
1
100
AcDbArc
50
64.121985194574833
51
65.183989458206128
0
ARC
5
134
100
AcDbEntity
8
0
100
AcDbCircle
10
-3.030198614183615
20
1.0878190070348384
30
1.7483827159451283e-16
40
0.093750000000000139
210
1.934627423844888e-15
220
4.2729474881449201e-16
230
1
100
AcDbArc
50
12.925259805869043
51
16.782059380745395
0
ARC
5
135
100
AcDbEntity
8
0
100
AcDbCircle
10
-2.9260802817875344
20
1.1192186146607173
30
1.7483827159451283e-16
40
0.014999999999999861
210
-1.0629385739007163e-16
220
-3.4508963582045382e-17
230
1
100
AcDbArc
50
63.224840789842887
51
196.78205938074771
0
ARC
5
136
100
AcDbEntity
8
0
100
AcDbCircle
10
-3.12499999962162
20
0.72499990979904627
30
0
40
0.45656249999978743
210
-3.7055689452784925e-17
220
4.7333634112013183e-17
230
1
100
AcDbArc
50
53.424935367906706
51
63.224840789799927
0
LINE
5
137
100
AcDbEntity
8
0
100
AcDbLine
10
-2.8529456241054776
20
1.0916546972607371
30
-7.2739411017321166e-18
11
-2.8713500133444967
21
1.067953625142366
31
1.7341420248112478e-16
0
ARC
5
138
100
AcDbEntity
8
0
100
AcDbCircle
10
-3.12499999962162
20
0.72499990979904627
30
0
40
0.42656249999990792
210
-9.6296497219361793e-34
220
-2.4532694666936857e-18
230
1
100
AcDbArc
50
50.826575821302036
51
53.513217472126918
0
LINE
5
139
100
AcDbEntity
8
0
100
AcDbLine
10
-2.8555533557374599
20
1.0556871827711614
30
8.1126498980668991e-19
11
-2.8371489664984306
21
1.0793882548895468
31
1.7626234070790088e-16
0
ARC
5
140
100
AcDbEntity
8
0
100
AcDbCircle
10
-3.12499999962162
20
0.72499990979904627
30
0
40
0.45656249999987836
210
-1.8201963904403763e-30
220
-2.4532694666952672e-18
230
1
100
AcDbArc
50
41.114952503646649
51
50.914857925526711
0
ARC
5
141
100
AcDbEntity
8
0
100
AcDbCircle
10
-2.7923304280113852
20
1.0153589935743006
30
1.748382715945128e-16
40
0.015000000000000369
210
7.8324218905642344e-17
220
-7.7723440911038464e-18
230
1
100
AcDbArc
50
-92.442266087248527
51
41.11495250370038
0
ARC
5
142
100
AcDbEntity
8
0
100
AcDbCircle
10
-2.7969645566982217
20
0.90670777475318487
30
1.7483827159451283e-16
40
0.09375000000000018
210
1.3463346819571406e-19
220
7.0333049030173487e-19
230
1
100
AcDbArc
50
87.557733912753974
51
91.414533487756174
0
ARC
5
143
100
AcDbEntity
8
0
100
AcDbCircle
10
-3.12499999962162
20
0.72499990979904627
30
0
40
0.42656249999990781
210
4.2916005975099792e-17
220
3.2756165947194689e-17
230
1
100
AcDbArc
50
39.366366752906323
51
40.217808098884056
0
SPLINE
5
144
100
AcDbEntity
8
0
100
AcDbSpline
70
0
71
3
72
18
73
14
74
0
42
0.000000001
43
0.0000000001
44
0.0000000001
40
0.74392779283765309
40
0.74392779283765309
40
0.74392779283765309
40
0.74392779283765309
40
0.79146661612688307
40
0.79146661612688307
40
0.87924152632605201
40
0.87924152632605201
40
0.96700825884048702
40
0.96700825884048702
40
1.0548794948381168
40
1.0548794948381168
40
1.1429018798969743
40
1.1429018798969743
40
1.2103436034119373
40
1.2103436034119373
40
1.2103436034119373
40
1.2103436034119373
10
-2.721221870808459
20
0.86254549896246935
30
0
10
-2.7181059717157137
20
0.86791640210617449
30
1.7483827159451283e-16
10
-2.7155566991734728
20
0.87361302939396634
30
1.7483827159451283e-16
10
-2.7100575641148117
20
0.89049755386703722
30
0
10
-2.7086637170088061
20
0.90204132768321954
30
3.4967654318902565e-16
10
-2.7103767706056638
20
0.92501434381134962
30
1.7483827159451283e-16
10
-2.7134667579714042
20
0.93622307854854736
30
5.2451481478353848e-16
10
-2.7237680657822585
20
0.95684290482832379
30
1.7483827159451283e-16
10
-2.730885865920071
20
0.96605494206956755
30
0
10
-2.7482608460109428
20
0.98125262943282154
30
1.7483827159451283e-16
10
-2.7583581566345843
20
0.98708818995103942
30
1.7483827159451283e-16
10
-2.7776633013079071
20
0.9936900611078221
30
-1.7483827159451283e-16
10
-2.7864053287341655
20
0.99528100224085192
30
1.7483827159451283e-16
10
-2.7952219569633692
20
0.99555860765715221
30
1.7483827159451283e-16
0
ARC
5
145
100
AcDbEntity
8
0
100
AcDbCircle
10
-3.12499999962162
20
0.72499990979904627
30
0
40
0.42656249999990792
210
5.2868958315655151e-17
220
1.4468939539139328e-17
230
1
100
AcDbArc
50
17.748743730776752
51
18.81122789934642
0
ARC
5
146
100
AcDbEntity
8
0
100
AcDbCircle
10
-2.7969645566982217
20
0.90670777475318487
30
1.7483827159451283e-16
40
0.093749999999999958
210
1.7628605310261549e-15
220
-1.1669649363710758e-15
230
1
100
AcDbArc
50
326.55201834190444
51
330.40881791705203
0
ARC
5
147
100
AcDbEntity
8
0
100
AcDbCircle
10
-2.7023987172240505
20
0.85300614996821811
30
3.4967654318902575e-16
40
0.014999999999999953
210
-3.4564957323769733e-17
220
4.9094025457293597e-17
230
1
100
AcDbArc
50
16.851599326103056
51
150.40881791705181
0
ARC
5
148
100
AcDbEntity
8
0
100
AcDbCircle
10
-3.12499999962162
20
0.72499990979904627
30
0
40
0.45656250000015342
210
5.3127436541102794e-17
220
1.363907025101259e-17
230
1
100
AcDbArc
50
7.5682414103613214
51
16.851599326042646
0
LINE
5
149
100
AcDbEntity
8
0
100
AcDbLine
10
-2.6724147540660654
20
0.78513236286565835
30
-2.4864844664433401e-17
11
-2.7020532746013584
21
0.78042223563265345
31
1.7482671638318785e-16
0
ARC
5
150
100
AcDbEntity
8
0
100
AcDbCircle
10
-3.12499999962162
20
0.72499990979904627
30
0
40
0.42656249999990792
210
-1.0980093818290957e-16
220
-2.0281726125666154e-17
230
1
100
AcDbArc
50
5.6463347155533352
51
7.4654199926634686
0
LINE
5
151
100
AcDbEntity
8
0
100
AcDbLine
10
-2.7005071126571027
20
0.76696841373594127
30
4.7460910943427804e-17
11
-2.7005071126571027
21
0.76041697223137927
31
3.4967654318902575e-16
0
LINE
5
152
100
AcDbEntity
8
0
100
AcDbLine
10
-2.7005071126571027
20
0.76041697223137927
30
3.4967654318902575e-16
11
-2.670213501122471
21
0.76523120594137284
31
1.7211823421341483e-16
0
ARC
5
153
100
AcDbEntity
8
0
100
AcDbCircle
10
-3.12499999962162
20
0.72499990979904627
30
0
40
0.45656250000021387
210
6.1144026403188403e-19
220
-9.3651714779486623e-18
230
1
100
AcDbArc
50
0
51
5.0553363707864305
0
LINE
5
154
100
AcDbEntity
8
0
100
AcDbLine
10
-2.668437499621406
20
0.72499990979895712
30
-2.791606955480229e-19
11
-2.6684374996214086
21
0.69718282872428794
31
1.7483827159451288e-16
0
ARC
5
155
100
AcDbEntity
8
0
100
AcDbCircle
10
-2.6834374996214083
20
0.69718282872428894
30
3.4967654318902565e-16
40
0.014999999999999966
210
0
220
0
230
1
100
AcDbArc
50
232.26074654227233
51
360
0
ARC
5
156
100
AcDbEntity
8
0
100
AcDbCircle
10
-2.7499999996213917
20
0.61118285143503526
30
1.7483827159451283e-16
40
0.093749999999999861
210
-1.1402854053993526e-15
220
-1.4757230379945437e-15
230
1
100
AcDbArc
50
52.260746542270795
51
58.134696501082246
0
LINE
5
157
100
AcDbEntity
8
0
100
AcDbLine
10
-2.7005071126571027
20
0.69080393306509169
30
1.6985675789283757e-16
11
-2.7005071126571032
21
0.68443323725054461
31
1.7483827162899882e-16
0
SPLINE
5
158
100
AcDbEntity
8
0
100
AcDbSpline
70
0
71
3
72
18
73
14
74
0
42
0.000000001
43
0.0000000001
44
0.0000000001
40
0.077599877398329783
40
0.077599877398329783
40
0.077599877398329783
40
0.077599877398329783
40
0.087959574254651451
40
0.087959574254651451
40
0.17583264846976285
40
0.17583264846976285
40
0.26365305690255358
40
0.26365305690255358
40
0.35148878637744557
40
0.35148878637744557
40
0.4393999003858774
40
0.4393999003858774
40
0.51420391049716319
40
0.51420391049716319
40
0.51420391049716319
40
0.51420391049716319
10
-2.700507112641668
20
0.53856638790821809
30
1.7483827159451283e-16
10
-2.6993895761449216
20
0.53933587390393145
30
3.4967654318902565e-16
10
-2.6982887707601799
20
0.54013169487526091
30
0
10
-2.6880185183562335
20
0.54792313284563054
30
1.7483827159451283e-16
10
-2.680280981339628
20
0.55662040750045161
30
1.7483827159451283e-16
10
-2.6685808781552267
20
0.57648757320903754
30
0
10
-2.6647285343304596
20
0.58746501230649939
30
1.7483827159451283e-16
10
-2.6614476260747506
20
0.61028187219164087
30
0
10
-2.6620513218228834
20
0.62190222098559333
30
3.4967654318902565e-16
10
-2.6676781855444296
20
0.64426900963236555
30
3.4967654318902565e-16
10
-2.6726512197914367
20
0.6548005006988683
30
3.4967654318902565e-16
10
-2.6853294866302582
20
0.67198326529935393
30
1.7483827159451283e-16
10
-2.6924287432601881
20
0.67885960963531455
30
3.4967654318902565e-16
10
-2.7005071126551057
20
0.68443323725344019
30
1.7483827159451283e-16
0
LINE
5
159
100
AcDbEntity
8
0
100
AcDbLine
10
-2.700507112641668
20
0.53856638790821809
30
1.7483827159451283e-16
11
-2.7005071126571023
21
0.53156176980497882
31
3.4967654309127957e-16
0
ARC
5
160
100
AcDbEntity
8
0
100
AcDbCircle
10
-2.7499999996213917
20
0.61118285143503526
30
1.7483827159451283e-16
40
0.09375000000000025
210
-1.079937901019028e-15
220
1.5245839989613549e-15
230
1
100
AcDbArc
50
301.86530349891797
51
307.73925345772011
0
ARC
5
161
100
AcDbEntity
8
0
100
AcDbCircle
10
-2.6834374996214216
20
0.52518287414577125
30
7.5824013558552586e-35
40
0.015000000000000008
210
-4.3898462024727367e-17
220
-3.642992237546573e-17
230
1
100
AcDbArc
50
0
51
127.73925345772022
0
LINE
5
162
100
AcDbEntity
8
0
100
AcDbLine
10
-2.6684374996214215
20
0.52518287414577025
30
6.5847693037087275e-19
11
-2.6684374996214237
21
0.49137786255483906
31
3.4967654318902536e-16
0
LINE
5
163
100
AcDbEntity
8
0
100
AcDbLine
10
-2.6684374996214237
20
0.49137786255483906
30
3.4967654318902536e-16
11
-2.5409645665506857
21
0.4913778625548389
31
1.6391087961985577e-16
0
LINE
5
164
100
AcDbEntity
8
0
100
AcDbLine
10
-2.5409645665506857
20
0.4913778625548389
30
1.6391087961985577e-16
11
-2.5409645665506857
21
0.93590094711686678
31
5.0347145002878914e-32
0
ARC
5
165
100
AcDbEntity
8
0
100
AcDbCircle
10
-2.8756102358420241
20
0.93590094711686644
30
5.2451481478353868e-16
40
0.33464566929133877
210
1.5673736818237498e-15
220
-7.2913850830296032e-18
230
1
100
AcDbArc
50
0
51
84.999999999999972
0
LINE
5
166
100
AcDbEntity
8
0
100
AcDbLine
10
-2.8464439439776501
20
1.2692731886042621
30
5.2533266672462281e-16
11
-3.7781758122274014
21
1.350789164521945
31
3.4987652384379227e-16
0
SPLINE
5
167
100
AcDbEntity
8
0
100
AcDbSpline
70
0
71
3
72
16
73
12
74
0
42
0.000000001
43
0.0000000001
44
0.0000000001
40
0.44017479503424295
40
0.44017479503424295
40
0.44017479503424295
40
0.44017479503424295
40
0.51106622415043246
40
0.51106622415043246
40
0.59622823827657545
40
0.59622823827657545
40
0.6813728541849039
40
0.6813728541849039
40
0.76651747009323234
40
0.76651747009323234
40
0.83311328866791268
40
0.83311328866791268
40
0.83311328866791268
40
0.83311328866791268
10
-3.8074149673654691
20
1.211045261587929
30
0
10
-3.7986459358411335
20
1.2153503930267309
30
0
10
-3.7898689908076513
20
1.2217206457347021
30
3.4967654318902565e-16
10
-3.7753860828177239
20
1.2362000598290865
30
0
10
-3.7679335922501016
20
1.2473501471196942
30
3.4967654318902565e-16
10
-3.7593789258261601
20
1.2679981013066635
30
-3.4967654318902565e-16
10
-3.7567622866098107
20
1.2811489103358986
30
0
10
-3.7567622866098107
20
1.3034965785533075
30
0
10
-3.7593789258261601
20
1.3166473875825426
30
-3.4967654318902565e-16
10
-3.7670009943255693
20
1.3350443785797916
30
3.4967654318902565e-16
10
-3.7721858813312155
20
1.3437078874883421
30
3.4967654318902565e-16
10
-3.7781758122812326
20
1.350789164477241
30
0
0
LINE
5
168
100
AcDbEntity
8
0
100
AcDbLine
10
-3.8074149673654691
20
1.211045261587929
30
0
11
-3.8074149673654691
21
1.0612540082520843
31
-1.1904370128692757e-31
0
ARC
5
169
100
AcDbEntity
8
0
100
AcDbCircle
10
-3.8271000067355483
20
1.0612540082520843
30
3.4967654318902565e-16
40
0.019685039370078667
210
1.1102230246251565e-16
220
0
230
1
100
AcDbArc
50
-90
51
0
0
LINE
5
170
100
AcDbEntity
8
0
100
AcDbLine
10
-3.8271000067355483
20
1.0415689688820056
30
3.4967654318902565e-16
11
-3.8664700854757057
21
1.0415689688820056
31
3.4967654318902565e-16
0
ARC
5
171
100
AcDbEntity
8
0
100
AcDbCircle
10
-3.8664700854757057
20
1.0612540082520843
30
3.4967654318902565e-16
40
0.019685039370079017
210
-1.1102230246251368e-16
220
3.967415685437708e-32
230
1
100
AcDbArc
50
180
51
270
0
LINE
5
172
100
AcDbEntity
8
0
100
AcDbLine
10
-3.8861551248457844
20
1.0612540082520843
30
3.4749106479409425e-16
11
-3.886155124845784
21
1.2105014250726376
31
-3.4967654318902555e-16
0
SPLINE
5
173
100
AcDbEntity
8
0
100
AcDbSpline
70
0
71
3
72
17
73
13
74
0
42
0.000000001
43
0.0000000001
44
0.0000000001
40
-0.09864227555494888
40
-0.09864227555494888
40
-0.09864227555494888
40
-0.09864227555494888
40
-0.085145304849725711
40
-0.085145304849725711
40
0
40
0
40
0
40
0.085145304849725698
40
0.085145304849725698
40
0.17030645200088085
40
0.17030645200088085
40
0.24423568676405755
40
0.24423568676405755
40
0.24423568676405755
40
0.24423568676405755
10
-3.928804584836846
20
1.3319388861768868
30
3.4967654318902565e-16
10
-3.9296167626933074
20
1.3302701816783986
30
3.4967654318902565e-16
10
-3.9303624237146249
20
1.3286070163539285
30
3.4967654318902565e-16
10
-3.9353172253730238
20
1.3166476000138221
30
3.4967654318902565e-16
10
-3.9379338073060386
20
1.3034966689655645
30
3.4967654318902565e-16
10
-3.9379338073060386
20
1.292322744444603
30
3.4967654318902565e-16
10
-3.9379338073060386
20
1.2811488199236416
30
3.4967654318902565e-16
10
-3.9353172253730238
20
1.267997888875384
30
3.4967654318902565e-16
10
-3.9267627320174858
20
1.2473498882749692
30
3.4967654318902565e-16
10
-3.9193104526089555
20
1.2361998240714016
30
3.4967654318902565e-16
10
-3.9045458315590529
20
1.2214384904819617
30
3.4967654318902565e-16
10
-3.8952817913062532
20
1.2148267723898216
30
0
10
-3.886155124845784
20
1.2105014250726376
30
0
0
SPLINE
5
174
100
AcDbEntity
8
0
100
AcDbSpline
70
0
71
3
72
18
73
14
74
0
42
0.000000001
43
0.0000000001
44
0.0000000001
40
0.074061493928427813
40
0.074061493928427813
40
0.074061493928427813
40
0.074061493928427813
40
0.092582396694917607
40
0.092582396694917607
40
0.11109989359298665
40
0.11109989359298665
40
0.12961322851800425
40
0.12961322851800425
40
0.14812310295639391
40
0.14812310295639391
40
0.16663297739478358
40
0.16663297739478358
40
0.16956707725655645
40
0.16956707725655645
40
0.16956707725655645
40
0.16956707725655645
10
-3.9465121805224515
20
1.3602361302713752
30
0
10
-3.944081615854933
20
1.3602361302713752
30
0
10
-3.9412209522727952
20
1.3596672611316509
30
0
10
-3.9367301275064821
20
1.3578074960855022
30
0
10
-3.9343052393910218
20
1.3561876820896266
30
0
10
-3.9308685388093672
20
1.352751744315954
30
3.4967654318902565e-16
10
-3.9292484732917567
20
1.3503278125397065
30
3.4967654318902565e-16
10
-3.927388794312126
20
1.3458391098484956
30
0
10
-3.9268199691828469
20
1.3429802082816626
30
3.4967654318902565e-16
10
-3.9268199691828469
20
1.3381219735209304
30
3.4967654318902565e-16
10
-3.927388794312126
20
1.3352630719540974
30
0
10
-3.9284659269792139
20
1.3326631994199101
30
3.4967654318902565e-16
10
-3.9286280259562272
20
1.3323016448953044
30
3.4967654318902565e-16
10
-3.928804584836846
20
1.3319388861768868
30
3.4967654318902565e-16
0
LINE
5
175
100
AcDbEntity
8
0
100
AcDbLine
10
-3.9465121805224515
20
1.3602361302713752
30
0
11
-4.0318027806438641
21
1.3602361302713752
31
-5.4636959873285251e-18
0
ARC
5
176
100
AcDbEntity
8
0
100
AcDbCircle
10
-4.0318027806438641
20
1.330708571216257
30
3.496765431890256e-16
40
0.029527559055118353
210
2.8202889284338433e-18
220
1.2027416100105763e-14
230
1
100
AcDbArc
50
90
51
168.27449136692135
0
ARC
5
177
100
AcDbEntity
8
0
100
AcDbCircle
10
-3.8467850461056292
20
1.2923073281306965
30
-7.0364684582336801e-32
40
0.21848844803529094
210
1.5551501493035315e-15
220
-3.8285168697592188e-16
230
1
100
AcDbArc
50
168.27449136692158
51
207.08182469041691
0
ARC
5
178
100
AcDbEntity
8
0
100
AcDbCircle
10
-3.7994692327228829
20
1.1812510455450631
30
3.496765431890261e-16
40
0.2421259842519736
210
-1.4952975988595747e-15
220
3.5687241535582714e-17
230
1
100
AcDbArc
50
177.25712248617384
51
214.32390687007043
0
LINE
5
179
100
AcDbEntity
8
0
100
AcDbLine
10
-3.9994321460818187
20
1.0447232991672895
30
3.3590091170865239e-16
11
-3.8097907375007676
21
0.76696841373594127
31
-6.814075796537295e-19
0
LINE
5
180
100
AcDbEntity
8
0
100
AcDbLine
10
-3.8097907375007676
20
0.76696841373594127
30
-6.814075796537295e-19
11
-3.8097907375007676
21
0.63901565783042935
31
3.4967654318902565e-16
0
ARC
5
181
100
AcDbEntity
8
0
100
AcDbCircle
10
-3.6621529422251777
20
0.63901565783042913
30
3.496765431890256e-16
40
0.14763779527558984
210
2.6295363507367208e-31
220
1.8593629849824456e-31
230
1
100
AcDbArc
50
180
51
270
0
LINE
5
182
100
AcDbEntity
8
0
100
AcDbLine
10
-3.6621529422251777
20
0.49137786255483862
30
3.4967654318902565e-16
11
-3.5889460166788587
21
0.49137786255483906
31
3.5514023917635417e-16
0
SPLINE
5
183
100
AcDbEntity
8
0
100
AcDbSpline
70
0
71
3
72
12
73
8
74
0
42
0.000000001
43
0.0000000001
44
0.0000000001
40
-0.24306496109981551
40
-0.24306496109981551
40
-0.24306496109981551
40
-0.24306496109981551
40
-0.1678546708726833
40
-0.1678546708726833
40
-0.08787153023152583
40
-0.08787153023152583
40
-0.0007038581980701869
40
-0.0007038581980701869
40
-0.0007038581980701869
40
-0.0007038581980701869
10
-3.5494928865861373
20
0.57298356375990056
30
0
10
-3.5577213510152847
20
0.56754821386274579
30
0
10
-3.5649897082236297
20
0.56077541714912771
30
3.4967654318902565e-16
10
-3.5773797944557866
20
0.54461078800747897
30
6.9935308637805131e-16
10
-3.5822352107031548
20
0.53521153444320246
30
3.4967654318902565e-16
10
-3.5887087965893372
20
0.51425254410280674
30
3.4967654318902565e-16
10
-3.5899358397484331
20
0.50277253830029722
30
3.4967654318902565e-16
10
-3.5889460166788578
20
0.49137786255483906
30
3.4967654318902565e-16
0
LINE
5
184
100
AcDbEntity
8
0
100
AcDbLine
10
-3.5494928865861373
20
0.57298356375990056
30
0
11
-3.5494928865861373
21
0.57897451670371003
31
-2.3695004237047683e-36
0
ARC
5
185
100
AcDbEntity
8
0
100
AcDbCircle
10
-3.4999999996214632
20
0.49935343507389363
30
0
40
0.093749999999999528
210
-9.5390253505581999e-17
220
-5.9295087904400182e-17
230
1
100
AcDbArc
50
121.86530349919505
51
127.73925345781794
0
ARC
5
186
100
AcDbEntity
8
0
100
AcDbCircle
10
-3.5665624996215812
20
0.58535341236304428
30
3.4967654318902565e-16
40
0.015000000000000008
210
4.3898462024669805e-17
220
3.1523383442155093e-17
230
1
100
AcDbArc
50
180
51
307.7392534578205
0
LINE
5
187
100
AcDbEntity
8
0
100
AcDbLine
10
-3.5815624996215809
20
0.58535341236304561
30
3.5033502011939567e-16
11
-3.5815624996215747
21
0.64310252466574369
31
-4.698055880087918e-31
0
LINE
5
188
100
AcDbEntity
8
0
100
AcDbLine
10
-3.5815624996215747
20
0.64310252466574369
30
-4.698055880087918e-31
11
-3.5494928865861368
21
0.64224984239687888
31
-2.0918593749972478e-21
0
LINE
5
189
100
AcDbEntity
8
0
100
AcDbLine
10
-3.5494928865861368
20
0.64224984239687888
30
-2.0918593749972478e-21
11
-3.5494928865861373
21
0.66225691062063863
31
0
0
ENDSEC
0
SECTION
2
OBJECTS
0
DICTIONARY
5
C
100
AcDbDictionary
3
ACAD_GROUP
350
D
3
ACAD_MLINESTYLE
350
17
0
DICTIONARY
5
D
100
AcDbDictionary
0
DICTIONARY
5
1A
330
C
100
AcDbDictionary
0
DICTIONARY
5
17
100
AcDbDictionary
0
ENDSEC
0
EOF
