0
SECTION
2
HEADER
9
$INSUNITS
70
1
9
$ACADVER
1
AC1014
9
$HANDSEED
5
FFFF
0
ENDSEC
0
SECTION
2
TABLES
0
TABLE
2
VPORT
5
8
100
AcDbSymbolTable
0
ENDTAB
0
TABLE
2
LTYPE
5
5
100
AcDbSymbolTable
0
LTYPE
5
14
100
AcDbSymbolTableRecord
100
AcDbLinetypeTableRecord
2
BYBLOCK
70
0
0
LTYPE
5
15
100
AcDbSymbolTableRecord
100
AcDbLinetypeTableRecord
2
BYLAYER
70
0
0
ENDTAB
0
TABLE
2
LAYER
5
2
100
AcDbSymbolTable
70
2
0
LAYER
5
50
100
AcDbSymbolTableRecord
100
AcDbLayerTableRecord
2
0
70
0
6
CONTINUOUS
0
ENDTAB
0
TABLE
2
STYLE
5
3
100
AcDbSymbolTable
70
1
0
STYLE
5
11
100
AcDbSymbolTableRecord
100
AcDbTextStyleTableRecord
2
STANDARD
70
0
0
ENDTAB
0
TABLE
2
VIEW
5
6
100
AcDbSymbolTable
70
0
0
ENDTAB
0
TABLE
2
UCS
5
7
100
AcDbSymbolTable
70
0
0
ENDTAB
0
TABLE
2
APPID
5
9
100
AcDbSymbolTable
70
2
0
APPID
5
12
100
AcDbSymbolTableRecord
100
AcDbRegAppTableRecord
2
ACAD
70
0
0
ENDTAB
0
TABLE
2
DIMSTYLE
5
A
100
AcDbSymbolTable
70
1
0
ENDTAB
0
TABLE
2
BLOCK_RECORD
5
1
100
AcDbSymbolTable
70
1
0
BLOCK_RECORD
5
1F
100
AcDbSymbolTableRecord
100
AcDbBlockTableRecord
2
*MODEL_SPACE
0
BLOCK_RECORD
5
1B
100
AcDbSymbolTableRecord
100
AcDbBlockTableRecord
2
*PAPER_SPACE
0
ENDTAB
0
ENDSEC
0
SECTION
2
BLOCKS
0
BLOCK
5
20
100
AcDbEntity
100
AcDbBlockBegin
2
*MODEL_SPACE
0
ENDBLK
5
21
100
AcDbEntity
100
AcDbBlockEnd
0
BLOCK
5
1C
100
AcDbEntity
100
AcDbBlockBegin
2
*PAPER_SPACE
0
ENDBLK
5
1D
100
AcDbEntity
100
AcDbBlockEnd
0
ENDSEC
0
SECTION
2
ENTITIES
0
CIRCLE
5
100
100
AcDbEntity
8
0
100
AcDbCircle
10
-3.6796418137093596
20
0.93799204516974333
30
3.4967654318902565e-16
40
0.039370078740157341
210
1.1102230246251565e-16
220
1.1033172723260584e-47
230
1
0
LINE
5
101
100
AcDbEntity
8
0
100
AcDbLine
10
-2.7005071143230097
20
0.5253048125257832
30
-1.7483827159451283e-16
11
-2.6684375012873578
21
0.52530481252579697
31
-1.7483827159451273e-16
0
LINE
5
102
100
AcDbEntity
8
0
100
AcDbLine
10
-2.6684375012873578
20
0.52530481252579697
30
-1.7483827159451273e-16
11
-2.6684375012873591
21
0.49137786255483906
31
-1.748382715945129e-16
0
LINE
5
103
100
AcDbEntity
8
0
100
AcDbLine
10
-2.6684375012873591
20
0.49137786255483906
30
-1.748382715945129e-16
11
-2.5409645682165927
21
0.4913778625548389
31
-1.6391087961985577e-16
0
LINE
5
104
100
AcDbEntity
8
0
100
AcDbLine
10
-2.5409645682165927
20
0.4913778625548389
30
-1.6391087961985577e-16
11
-2.5409645682165922
21
0.93590094711686689
31
3.0936197531889458e-32
0
ARC
5
105
100
AcDbEntity
8
0
100
AcDbCircle
10
-2.8756102375079311
20
0.93590094711686678
30
1.7483827159451288e-16
40
0.33464566929133877
210
5.2245789394124986e-16
220
-5.2854346987245003e-18
230
1
100
AcDbArc
50
0
51
85.000000000000043
0
LINE
5
106
100
AcDbEntity
8
0
100
AcDbLine
10
-2.8464439456435575
20
1.2692731886042621
30
1.7496975662315081e-16
11
-3.7781758138933084
21
1.350789164521945
31
-1.7423832963021312e-16
0
SPLINE
5
107
100
AcDbEntity
8
0
100
AcDbSpline
70
0
71
3
72
16
73
12
74
0
42
0.000000001
43
0.0000000001
44
0.0000000001
40
0.44017479503424295
40
0.44017479503424295
40
0.44017479503424295
40
0.44017479503424295
40
0.51106622415043246
40
0.51106622415043246
40
0.59622823827657545
40
0.59622823827657545
40
0.6813728541849039
40
0.6813728541849039
40
0.76651747009323234
40
0.76651747009323234
40
0.83311328866791268
40
0.83311328866791268
40
0.83311328866791268
40
0.83311328866791268
10
-3.8074149690313766
20
1.211045261587929
30
0
10
-3.7986459375070409
20
1.2153503930267309
30
0
10
-3.7898689924735587
20
1.2217206457347021
30
3.4967654318902565e-16
10
-3.7753860844836313
20
1.2362000598290865
30
-3.4967654318902565e-16
10
-3.767933593916009
20
1.2473501471196942
30
3.4967654318902565e-16
10
-3.759378927492067
20
1.2679981013066635
30
0
10
-3.7567622882757181
20
1.2811489103358986
30
0
10
-3.7567622882757181
20
1.3034965785533075
30
0
10
-3.759378927492067
20
1.3166473875825426
30
0
10
-3.7670009959914763
20
1.3350443785797916
30
3.4967654318902565e-16
10
-3.7721858829971224
20
1.3437078874883421
30
3.4967654318902565e-16
10
-3.77817581394714
20
1.350789164477241
30
0
0
LINE
5
108
100
AcDbEntity
8
0
100
AcDbLine
10
-3.8074149690313766
20
1.211045261587929
30
0
11
-3.8074149690313757
21
1.0612540082520845
31
-3.496765431890256e-16
0
ARC
5
109
100
AcDbEntity
8
0
100
AcDbCircle
10
-3.8271000084014557
20
1.0612540082520843
30
3.4967654318902565e-16
40
0.019685039370078667
210
-1.8200037974459033e-31
220
-6.4659523866549401e-45
230
1
100
AcDbArc
50
-89.999999999997399
51
0
0
LINE
5
110
100
AcDbEntity
8
0
100
AcDbLine
10
-3.8271000084014548
20
1.0415689688820056
30
3.4967654318902565e-16
11
-3.8664700871416122
21
1.0415689688820058
31
5.4636959873285258e-18
0
ARC
5
111
100
AcDbEntity
8
0
100
AcDbCircle
10
-3.8664700871416136
20
1.0612540082520843
30
3.4967654318902565e-16
40
0.019685039370079017
210
-1.1102230246251368e-16
220
5.5466782398352371e-32
230
1
100
AcDbArc
50
180
51
270.00000000000387
0
LINE
5
112
100
AcDbEntity
8
0
100
AcDbLine
10
-3.8861551265116927
20
1.0612540082520843
30
3.4749106479409425e-16
11
-3.8861551265116918
21
1.2105014250726376
31
3.4967654318902565e-16
0
SPLINE
5
113
100
AcDbEntity
8
0
100
AcDbSpline
70
0
71
3
72
17
73
13
74
0
42
0.000000001
43
0.0000000001
44
0.0000000001
40
-0.09864227555494888
40
-0.09864227555494888
40
-0.09864227555494888
40
-0.09864227555494888
40
-0.085145304849725711
40
-0.085145304849725711
40
0
40
0
40
0
40
0.085145304849725698
40
0.085145304849725698
40
0.17030645200088085
40
0.17030645200088085
40
0.24423568676405755
40
0.24423568676405755
40
0.24423568676405755
40
0.24423568676405755
10
-3.9288045865027534
20
1.3319388861768868
30
0
10
-3.9296167643592153
20
1.3302701816783986
30
0
10
-3.9303624253805332
20
1.3286070163539285
30
0
10
-3.9353172270389312
20
1.3166476000138221
30
0
10
-3.937933808971946
20
1.3034966689655645
30
0
10
-3.937933808971946
20
1.292322744444603
30
0
10
-3.937933808971946
20
1.2811488199236416
30
0
10
-3.9353172270389312
20
1.267997888875384
30
0
10
-3.9267627336833932
20
1.2473498882749692
30
-3.4967654318902565e-16
10
-3.9193104542748625
20
1.2361998240714016
30
3.4967654318902565e-16
10
-3.9045458332249598
20
1.2214384904819617
30
0
10
-3.8952817929721606
20
1.2148267723898216
30
3.4967654318902565e-16
10
-3.8861551265116914
20
1.2105014250726376
30
3.4967654318902565e-16
0
SPLINE
5
114
100
AcDbEntity
8
0
100
AcDbSpline
70
0
71
3
72
18
73
14
74
0
42
0.000000001
43
0.0000000001
44
0.0000000001
40
0.074061493928427813
40
0.074061493928427813
40
0.074061493928427813
40
0.074061493928427813
40
0.092582396694917607
40
0.092582396694917607
40
0.11109989359298665
40
0.11109989359298665
40
0.12961322851800425
40
0.12961322851800425
40
0.14812310295639391
40
0.14812310295639391
40
0.16663297739478358
40
0.16663297739478358
40
0.16956707725655645
40
0.16956707725655645
40
0.16956707725655645
40
0.16956707725655645
10
-3.9465121821883589
20
1.3602361302713752
30
0
10
-3.9440816175208404
20
1.3602361302713752
30
0
10
-3.9412209539387026
20
1.3596672611316509
30
0
10
-3.9367301291723895
20
1.3578074960855022
30
0
10
-3.9343052410569288
20
1.3561876820896266
30
0
10
-3.9308685404752746
20
1.352751744315954
30
0
10
-3.9292484749576642
20
1.3503278125397065
30
0
10
-3.9273887959780329
20
1.3458391098484956
30
0
10
-3.9268199708487543
20
1.3429802082816626
30
0
10
-3.9268199708487543
20
1.3381219735209304
30
0
10
-3.9273887959780329
20
1.3352630719540974
30
0
10
-3.9284659286451209
20
1.3326631994199101
30
0
10
-3.9286280276221346
20
1.3323016448953044
30
3.4967654318902565e-16
10
-3.9288045865027534
20
1.3319388861768868
30
0
0
LINE
5
115
100
AcDbEntity
8
0
100
AcDbLine
10
-3.9465121821883589
20
1.3602361302713752
30
0
11
-4.0318027823097706
21
1.3602361302713757
31
3.4967654318902565e-16
0
ARC
5
116
100
AcDbEntity
8
0
100
AcDbCircle
10
-4.0318027823097715
20
1.3307085712162565
30
-3.7722446745379911e-33
40
0.029527559055119227
210
-5.6062573530801574e-28
220
-1.1842378929334554e-14
230
1
100
AcDbArc
50
89.99999999999828
51
168.27449136691965
0
ARC
5
117
100
AcDbEntity
8
0
100
AcDbCircle
10
-3.8467850477715402
20
1.2923073281306949
30
-7.3033689859597848e-31
40
0.21848844803528786
210
-3.9410333426321116e-18
220
-1.9982593822243578e-17
230
1
100
AcDbArc
50
168.2744913669209
51
207.08182469041697
0
ARC
5
118
100
AcDbEntity
8
0
100
AcDbCircle
10
-3.7994692343887908
20
1.1812510455450631
30
-2.0624131687926301e-31
40
0.2421259842519729
210
-4.968555318899822e-17
220
7.2863053624726677e-17
230
1
100
AcDbArc
50
177.25712248617398
51
214.32390687007049
0
LINE
5
119
100
AcDbEntity
8
0
100
AcDbLine
10
-3.9994321477477257
20
1.0447232991672897
30
1.2435874074192983e-17
11
-3.8097907391666754
21
0.76696841373594127
31
3.4763232045006464e-16
0
LINE
5
120
100
AcDbEntity
8
0
100
AcDbLine
10
-3.8097907391666754
20
0.76696841373594127
30
3.4763232045006464e-16
11
-3.809790739166675
21
0.63901565783042946
31
1.5164802711710517e-34
0
ARC
5
121
100
AcDbEntity
8
0
100
AcDbCircle
10
-3.6621529438910856
20
0.63901565783042913
30
3.496765431890259e-16
40
0.14763779527558915
210
-2.3684757858670245e-15
220
4.8659323542454388e-30
230
1
100
AcDbArc
50
180
51
270.00000000000017
0
LINE
5
122
100
AcDbEntity
8
0
100
AcDbLine
10
-3.6621529438910851
20
0.49137786255483923
30
3.4967654318902555e-16
11
-3.557218640243073
21
0.49137786255483906
31
1.2867761799368474e-33
0
SPLINE
5
123
100
AcDbEntity
8
0
100
AcDbSpline
70
0
71
3
72
10
73
6
74
0
42
0.000000001
43
0.0000000001
44
0.0000000001
40
-0.025538552834618079
40
-0.025538552834618079
40
-0.025538552834618079
40
-0.025538552834618079
40
-0.01516654130908923
40
-0.01516654130908923
40
-0.0010951255293387644
40
-0.0010951255293387644
40
-0.0010951255293387644
40
-0.0010951255293387644
10
-3.5494928882520447
20
0.49710610574918485
30
-3.4967654318902565e-16
10
-3.55062850303832
20
0.49635599023555244
30
-3.4967654318902565e-16
10
-3.5517467677676695
20
0.49557978349491805
30
-3.4967654318902565e-16
10
-3.5543391486898197
20
0.49369046215786427
30
0
10
-3.555797144547256
20
0.49255649743641833
30
0
10
-3.5572186402430725
20
0.49137786255483906
30
3.4967654318902565e-16
0
LINE
5
124
100
AcDbEntity
8
0
100
AcDbLine
10
-3.5494928882520447
20
0.49710610574918485
30
-3.4967654318902565e-16
11
-3.5494928882520438
21
0.50309647779447519
31
3.4967657263316832e-16
0
ARC
5
125
100
AcDbEntity
8
0
100
AcDbCircle
10
-3.5000000012873977
20
0.42347539616464158
30
0
40
0.093749999999999375
210
2.0129407582285949e-15
220
-3.1405039733338474e-15
230
1
100
AcDbArc
50
121.86530349917496
51
127.73925345782789
0
ARC
5
126
100
AcDbEntity
8
0
100
AcDbCircle
10
-3.5665625012875304
20
0.50947537345378102
30
3.2035645728488467e-33
40
0.015000000000000008
210
1.1448003719067756e-32
220
-7.3598084000804784e-18
230
1
100
AcDbArc
50
180
51
307.7392534578288
0
LINE
5
127
100
AcDbEntity
8
0
100
AcDbLine
10
-3.5815625012875305
20
0.50947537345378113
30
4.0186727186032871e-33
11
-3.5815625012875287
21
0.56523320396376686
31
-6.0973980838752487e-24
0
LINE
5
128
100
AcDbEntity
8
0
100
AcDbLine
10
-3.5815625012875287
20
0.56523320396376686
30
-6.0973980838752487e-24
11
-3.5515631740784737
21
0.56523320395244947
31
-2.7318479936642714e-18
0
LINE
5
129
100
AcDbEntity
8
0
100
AcDbLine
10
-3.5515625012874112
20
0.56523320395244958
30
-3.4967654318902565e-16
11
-3.5494928882520438
21
0.56523313433163269
31
-3.495058032018175e-16
0
LINE
5
130
100
AcDbEntity
8
0
100
AcDbLine
10
-3.5494928882520438
20
0.56523313433163269
30
-3.495058032018175e-16
11
-3.5494928882520447
21
0.58523313434284252
31
-1.8956003389638147e-35
0
LINE
5
131
100
AcDbEntity
8
0
100
AcDbLine
10
-3.5494928882520447
20
0.58523313434284252
30
-1.8956003389638147e-35
11
-3.5515621648918199
21
0.5852332039524496
31
1.7074101191738718e-19
0
LINE
5
132
100
AcDbEntity
8
0
100
AcDbLine
10
-3.5515621648918199
20
0.5852332039524496
30
1.7074101191738718e-19
11
-3.581562501287527
21
0.58523320396376699
31
-3.5240839118268994e-16
0
LINE
5
133
100
AcDbEntity
8
0
100
AcDbLine
10
-3.581562501287527
20
0.58523320396376699
30
-3.5240839118268994e-16
11
-3.5815625012875256
21
0.64099164250713381
31
1.3115458428786349e-23
0
ARC
5
134
100
AcDbEntity
8
0
100
AcDbCircle
10
-3.5665625012875255
20
0.64099164250713325
30
-2.5325220528556566e-32
40
0.015000000000000164
210
-1.1102230246251536e-16
220
5.2200405212671641e-30
230
1
100
AcDbArc
50
52.25723701472711
51
180
0
ARC
5
135
100
AcDbEntity
8
0
100
AcDbCircle
10
-3.4999947336720747
20
0.72698754249483843
30
3.4967654318902565e-16
40
0.093750000000000014
210
-2.3607008877470998e-15
220
-2.8756687346328841e-15
230
1
100
AcDbArc
50
232.25723701472853
51
238.13090581717233
0
LINE
5
136
100
AcDbEntity
8
0
100
AcDbLine
10
-3.5494928882520447
20
0.64736973548423671
30
3.5533256133286356e-16
11
-3.5494928882520456
21
0.65276506876763929
31
-2.4393314936492554e-23
0
SPLINE
5
137
100
AcDbEntity
8
0
100
AcDbSpline
70
0
71
3
72
18
73
14
74
0
42
0.000000001
43
0.0000000001
44
0.0000000001
40
-0.46598182093689083
40
-0.46598182093689083
40
-0.46598182093689083
40
-0.46598182093689083
40
-0.41091776235727911
40
-0.41091776235727911
40
-0.35149547347232812
40
-0.35149547347232812
40
-0.2635995826113437
40
-0.2635995826113437
40
-0.17574128674599743
40
-0.17574128674599743
40
-0.087886999859391829
40
-0.087886999859391829
40
-0.0046752882375958637
40
-0.0046752882375958637
40
-0.0046752882375958637
40
-0.0046752882375958637
10
-3.5442119666529619
20
0.80384719574232499
30
-3.4967654318902565e-16
10
-3.5505010891694981
20
0.80029678107065605
30
3.4967654318902565e-16
10
-3.5563349696638062
20
0.79599020426589051
30
0
10
-3.5672455687610487
20
0.78566072753385108
30
-3.4967654318902565e-16
10
-3.5721765767005218
20
0.77957557233405617
30
-3.4967654318902565e-16
10
-3.5822690659512677
20
0.76308567098954572
30
0
10
-3.5863124803635018
20
0.75216562932018083
30
3.4967654318902565e-16
10
-3.5899849507107451
20
0.72939501842661425
30
0
10
-3.5895807328400835
20
0.71776270355983951
30
-3.4967654318902565e-16
10
-3.5843359740261334
20
0.69530781669389408
30
0
10
-3.5795458993963769
20
0.68470048524234883
30
-3.4967654318902565e-16
10
-3.5665223529297254
20
0.6664148068792366
30
-3.4967654318902565e-16
10
-3.558599321266994
20
0.65877287374454485
30
0
10
-3.5494928882520447
20
0.65276506876763929
30
-3.4967654318902565e-16
0
ARC
5
138
100
AcDbEntity
8
0
100
AcDbCircle
10
-3.1250000012875274
20
0.72499990979904627
30
3.4967654318902565e-16
40
0.42656249999990797
210
-1.0877870715211988e-16
220
1.4847048973074323e-17
230
1
100
AcDbArc
50
168.46177848815651
51
169.34799442242203
0
ARC
5
139
100
AcDbEntity
8
0
100
AcDbCircle
10
-3.4999947336720747
20
0.72698754249483843
30
3.4967654318902565e-16
40
0.093750000000000125
210
-3.3002955215462032e-16
220
3.906688822706096e-16
230
1
100
AcDbArc
50
117.26505309951382
51
121.12185267454511
0
ARC
5
140
100
AcDbEntity
8
0
100
AcDbCircle
10
-3.5562032448081462
20
0.82008515672778293
30
-3.4967654318902565e-16
40
0.014999999999999188
210
-7.6212918667704812e-17
220
1.1470137170460638e-17
230
1
100
AcDbArc
50
167.56463408337603
51
301.12185267454953
0
ARC
5
141
100
AcDbEntity
8
0
100
AcDbCircle
10
-3.1250000012875274
20
0.72499990979904627
30
3.4967654318902565e-16
40
0.4565624999999075
210
-4.1166551124398524e-16
220
1.3595208405116983e-16
230
1
100
AcDbArc
50
157.76472866146727
51
167.5646340834075
0
LINE
5
142
100
AcDbEntity
8
0
100
AcDbLine
10
-3.5476115140190103
20
0.89776803681607742
30
1.5221377181724308e-16
11
-3.5200906225510704
21
0.8858071465633135
31
-8.8029860554731212e-20
0
ARC
5
143
100
AcDbEntity
8
0
100
AcDbCircle
10
-3.1250000012875274
20
0.72499990979904627
30
3.4967654318902565e-16
40
0.42656249999990792
210
3.8721175849531194e-17
220
-5.5862699340767274e-17
230
1
100
AcDbArc
50
155.16636911486958
51
157.85301076569118
0
LINE
5
144
100
AcDbEntity
8
0
100
AcDbLine
10
-3.5121187431755905
20
0.90414969652840416
30
3.7467402674134734e-16
11
-3.5396396346435139
21
0.91611058678118606
31
8.8029860554867604e-20
0
ARC
5
145
100
AcDbEntity
8
0
100
AcDbCircle
10
-3.1250000012875274
20
0.72499990979904627
30
3.4967654318902565e-16
40
0.45656249999987009
210
-4.1625140765290955e-16
220
2.5626414301955226e-16
230
1
100
AcDbArc
50
145.45474579716196
51
155.25465121908798
0
ARC
5
146
100
AcDbEntity
8
0
100
AcDbCircle
10
-3.4887055673043625
20
0.97539100919059452
30
3.4967654318902565e-16
40
0.01500000000000064
210
-4.5723345344799332e-17
220
2.4118177582192792e-17
230
1
100
AcDbArc
50
11.897527206057596
51
145.45474579713976
0
ARC
5
147
100
AcDbEntity
8
0
100
AcDbCircle
10
-3.3822917474593428
20
0.99781112172357866
30
0
40
0.093749999999999375
210
3.6574683879629806e-15
220
7.6322481080996197e-16
230
1
100
AcDbArc
50
191.89752720605605
51
195.75432678103243
0
ARC
5
148
100
AcDbEntity
8
0
100
AcDbCircle
10
-3.1250000012875274
20
0.72499990979904627
30
3.4967654318902565e-16
40
0.42656249999990797
210
-3.2761854179938913e-17
220
-5.2172181933648142e-17
230
1
100
AcDbArc
50
143.82985564721685
51
144.55760139240587
0
SPLINE
5
149
100
AcDbEntity
8
0
100
AcDbSpline
70
0
71
3
72
18
73
14
74
0
42
0.000000001
43
0.0000000001
44
0.0000000001
40
0.020811879629774419
40
0.020811879629774419
40
0.020811879629774419
40
0.020811879629774419
40
0.087978495255102165
40
0.087978495255102165
40
0.17602074227956394
40
0.17602074227956394
40
0.26406433476444285
40
0.26406433476444285
40
0.352048714525386
40
0.352048714525386
40
0.43994844772830538
40
0.43994844772830538
40
0.49489580456605708
40
0.49489580456605708
40
0.49489580456605708
40
0.49489580456605708
10
-3.3577258153531893
20
1.0824831427955959
30
-3.4967654318902565e-16
10
-3.3661421439214982
20
1.0850000653137633
30
-3.4967654318902565e-16
10
-3.3749010379176827
20
1.0862570175311033
30
3.4967654318902565e-16
10
-3.3952694477547438
20
1.0861256646531765
30
0
10
-3.4066989975059641
20
1.0837951356784241
30
-3.4967654318902565e-16
10
-3.4280206974331899
20
1.0748847883119501
30
3.4967654318902565e-16
10
-3.4377098486883009
20
1.0683897284981181
30
3.4967654318902565e-16
10
-3.4540449670140827
20
1.0520553480826
30
0
10
-3.4605369923852538
20
1.0423742172747701
30
3.4967654318902565e-16
10
-3.4694363464776616
20
1.0210772084794841
30
0
10
-3.4717622899802532
20
1.0096672465583294
30
0
10
-3.4718792456449297
20
0.99092170818391112
30
3.4967654318902565e-16
10
-3.4710429605013533
20
0.98374166660212314
30
0
10
-3.4693502383376438
20
0.97675074028368758
30
0
0
ARC
5
150
100
AcDbEntity
8
0
100
AcDbCircle
10
-3.1250000012875274
20
0.72499990979904627
30
3.4967654318902565e-16
40
0.42656249999990808
210
-5.8978276487568939e-17
220
8.6701419247841415e-17
230
1
100
AcDbArc
50
122.0885370243554
51
123.06460347468898
0
ARC
5
151
100
AcDbEntity
8
0
100
AcDbCircle
10
-3.3822917474593428
20
0.99781112172357866
30
0
40
0.093750000000000472
210
-1.010183686363033e-15
220
-3.0928242940342012e-15
230
1
100
AcDbArc
50
70.891811635728899
51
74.7486112106739
0
ARC
5
152
100
AcDbEntity
8
0
100
AcDbCircle
10
-3.3536845597301261
20
1.1027310498126948
30
-4.5494408135131551e-32
40
0.015000000000000019
210
-1.0711220221291839e-16
220
2.1845118944058215e-17
230
1
100
AcDbArc
50
121.19139261958549
51
254.74861121067485
0
ARC
5
153
100
AcDbEntity
8
0
100
AcDbCircle
10
-3.1250000012875274
20
0.72499990979904627
30
3.4967654318902565e-16
40
0.45656249999982096
210
-1.3967472081237571e-16
220
3.4920400521754063e-16
230
1
100
AcDbArc
50
111.39148719766646
51
121.1913926195931
0
LINE
5
154
100
AcDbEntity
8
0
100
AcDbLine
10
-3.2915258986612743
20
1.1501098272438817
30
1.7796699913588266e-16
11
-3.2811955353614248
21
1.1219363298231368
31
3.5015215364446489e-16
0
ARC
5
155
100
AcDbEntity
8
0
100
AcDbCircle
10
-3.1250000012875274
20
0.72499990979904627
30
3.4967654318902565e-16
40
0.42656249999990797
210
-1.0510347120432272e-16
220
-4.3125881498484954e-17
230
1
100
AcDbArc
50
108.79312765106091
51
111.47976930188786
0
LINE
5
156
100
AcDbEntity
8
0
100
AcDbLine
10
-3.2624180264738265
20
1.1288214703428949
30
3.5264859250244984e-16
11
-3.2727483897736915
21
1.1569949677636346
31
-4.7561045543926013e-19
0
ARC
5
157
100
AcDbEntity
8
0
100
AcDbCircle
10
-3.1250000012875274
20
0.72499990979904627
30
3.4967654318902565e-16
40
0.45656249999982551
210
-7.9196374034959677e-18
220
3.8874877222129389e-16
230
1
100
AcDbArc
50
99.081504333358367
51
108.88140975528664
0
ARC
5
158
100
AcDbEntity
8
0
100
AcDbCircle
10
-3.1946959223564062
20
1.1610273401201863
30
-1.7483827159451283e-16
40
0.015000000000000152
210
2.190460475391716e-18
220
-2.1063635505837463e-17
230
1
100
AcDbArc
50
-34.475714257692609
51
99.081504333363839
0
ARC
5
159
100
AcDbEntity
8
0
100
AcDbCircle
10
-3.1050460986477879
20
1.0994686558505078
30
0
40
0.093750000000001235
210
-1.5112175098847981e-15
220
1.0976663383572345e-15
230
1
100
AcDbArc
50
145.52428574230856
51
149.38108531725499
0
ARC
5
160
100
AcDbEntity
8
0
100
AcDbCircle
10
-3.1250000012875274
20
0.72499990979904627
30
3.4967654318902565e-16
40
0.42656249999990814
210
-1.8001181173806818e-18
220
6.4007355282023141e-18
230
1
100
AcDbArc
50
97.452960652267421
51
98.184359928595086
0
SPLINE
5
161
100
AcDbEntity
8
0
100
AcDbSpline
70
0
71
3
72
18
73
14
74
0
42
0.000000001
43
0.0000000001
44
0.0000000001
40
0.048308702884763854
40
0.048308702884763854
40
0.048308702884763854
40
0.048308702884763854
40
0.087775399354827574
40
0.087775399354827574
40
0.17564091029264914
40
0.17564091029264914
40
0.26364538052267428
40
0.26364538052267428
40
0.35175226853411878
40
0.35175226853411878
40
0.43986704319447278
40
0.43986704319447278
40
0.51921013330253907
40
0.51921013330253907
40
0.51921013330253907
40
0.51921013330253907
10
-3.0273471609677447
20
1.1402341679999202
30
0
10
-3.0297211881880961
20
1.144810287860792
30
0
10
-3.0324958667871442
20
1.1491810460617575
30
1.7483827159451283e-16
10
-3.0426549315124665
20
1.1624488722970645
30
0
10
-3.0513855213053915
20
1.1701484404060982
30
0
10
-3.0713185665475562
20
1.1817845849473836
30
0
10
-3.0823350870765331
20
1.185604417997608
30
-3.4967654318902565e-16
10
-3.1052240637355921
20
1.1888131985688231
30
1.7483827159451283e-16
10
-3.1168800452462211
20
1.1881664994502834
30
0
10
-3.1392872287329001
20
1.1824406191784238
30
-1.7483827159451283e-16
10
-3.1498250117999671
20
1.1774155477522135
30
0
10
-3.1674529548001265
20
1.1642918550439343
30
1.7483827159451283e-16
10
-3.1746377620092723
20
1.1566562648225907
30
-1.7483827159451283e-16
10
-3.1803303532916494
20
1.1479586767649093
30
1.7483827159451283e-16
0
ARC
5
162
100
AcDbEntity
8
0
100
AcDbCircle
10
-3.1250000012875274
20
0.72499990979904627
30
3.4967654318902565e-16
40
0.42656249999990825
210
-5.0370627437454174e-17
220
1.9785739982950753e-17
230
1
100
AcDbArc
50
75.715295560537072
51
76.765930998194506
0
ARC
5
163
100
AcDbEntity
8
0
100
AcDbCircle
10
-3.1050460986477879
20
1.0994686558505078
30
0
40
0.09374999999999957
210
-3.3743625410778142e-15
220
-1.5159599775054344e-15
230
1
100
AcDbArc
50
24.518570171877794
51
28.375369746855611
0
ARC
5
164
100
AcDbEntity
8
0
100
AcDbCircle
10
-3.009362090069057
20
1.1511516608164076
30
-1.7483827159451288e-16
40
0.014999999999999901
210
6.2032377222997802e-17
220
-5.3991797156261071e-18
230
1
100
AcDbArc
50
74.81815115579991
51
208.37536974685659
0
ARC
5
165
100
AcDbEntity
8
0
100
AcDbCircle
10
-3.1250000012875274
20
0.72499990979904627
30
3.4967654318902565e-16
40
0.45656249999989745
210
1.5446024274190797e-16
220
3.1297074553834111e-16
230
1
100
AcDbArc
50
65.018245733877663
51
74.818151155780086
0
LINE
5
166
100
AcDbEntity
8
0
100
AcDbLine
10
-2.9321801303685193
20
1.1388474829282522
30
1.903713556199316e-16
11
-2.9454459949569434
21
1.1119313316515607
31
-3.4987464090528973e-16
0
ARC
5
167
100
AcDbEntity
8
0
100
AcDbCircle
10
-3.1250000012875274
20
0.72499990979904627
30
3.4967654318902565e-16
40
0.42656249999990814
210
-6.2053614384049056e-17
220
-6.2603400511909216e-18
230
1
100
AcDbArc
50
62.419886187274152
51
65.106527838098913
0
LINE
5
168
100
AcDbEntity
8
0
100
AcDbLine
10
-2.9275065016001824
20
1.1030896927705203
30
3.6429869927326289e-16
11
-2.9142406370117544
21
1.1300058440472198
31
1.9809771626409168e-19
0
ARC
5
169
100
AcDbEntity
8
0
100
AcDbCircle
10
-3.1250000012875274
20
0.72499990979904627
30
3.4967654318902565e-16
40
0.45656249999994158
210
2.9407135726989333e-16
220
2.9629237266765872e-16
230
1
100
AcDbArc
50
52.708281522602455
51
62.508168291498279
0
ARC
5
170
100
AcDbEntity
8
0
100
AcDbCircle
10
-2.8574690208897069
20
1.0762898412425463
30
-1.7483827159451283e-16
40
0.014999999999999953
210
3.3632730840824922e-17
220
3.6802702026843788e-17
230
1
100
AcDbArc
50
-80.848814189606145
51
52.708281522631921
0
ARC
5
171
100
AcDbEntity
8
0
100
AcDbCircle
10
-2.8401734077382264
20
0.96892399813723451
30
0
40
0.093750000000000513
210
-2.4216306095361235e-16
220
1.8449526030800771e-15
230
1
100
AcDbArc
50
99.151185810394509
51
103.00795153889247
0
ARC
5
172
100
AcDbEntity
8
0
100
AcDbCircle
10
-3.1250000012875274
20
0.72499990979904627
30
3.4967654318902565e-16
40
0.42656249999990814
210
-4.313416343934056e-17
220
2.7582026918171376e-17
230
1
100
AcDbArc
50
50.989990631529928
51
51.811128150932284
0
SPLINE
5
173
100
AcDbEntity
8
0
100
AcDbSpline
70
0
71
3
72
20
73
16
74
0
42
0.000000001
43
0.0000000001
44
0.0000000001
40
0.78944669666386713
40
0.78944669666386713
40
0.78944669666386713
40
0.78944669666386713
40
0.79151096983629698
40
0.79151096983629698
40
0.87929002221558872
40
0.87929002221558872
40
0.96704211631805692
40
0.96704211631805692
40
1.0548908495747109
40
1.0548908495747109
40
1.1428987962954997
40
1.1428987962954997
40
1.2310285722226328
40
1.2310285722226328
40
1.2565222567945376
40
1.2565222567945376
40
1.2565222567945376
40
1.2565222567945376
10
-2.7571288892008017
20
0.94093140657116425
30
1.7483827159451283e-16
10
-2.75704259894145
20
0.9411880670002285
30
0
10
-2.7569574684408784
20
0.94144517890383927
30
-1.7483827159451283e-16
10
-2.7533029936711744
20
0.95265478388493419
30
1.7483827159451283e-16
10
-2.7519059753322384
20
0.96419865312548581
30
0
10
-2.75361375239798
20
0.98717057277018927
30
0
10
-2.7567007083766391
20
0.99837796910042476
30
-1.7483827159451283e-16
10
-2.7669952996294693
20
1.0189955803202031
30
0
10
-2.7741090378925701
20
1.0282067921287097
30
1.7483827159451283e-16
10
-2.7914761721763819
20
1.0434059768277717
30
1.7483827159451283e-16
10
-2.801570032962966
20
1.0492435355077772
30
0
10
-2.8234397147642945
20
1.0567310457592642
30
0
10
-2.8350100684863877
20
1.0583040531166457
30
1.7483827159451283e-16
10
-2.8498951020464411
20
1.0574143961769831
30
1.7483827159451283e-16
10
-2.8532143442929967
20
1.0570265198865347
30
1.7483827159451283e-16
10
-2.8564976139771638
20
1.0564543326309284
30
1.7483827159451283e-16
0
ARC
5
174
100
AcDbEntity
8
0
100
AcDbCircle
10
-3.1250000012875274
20
0.72499990979904627
30
3.4967654318902565e-16
40
0.42656249999990797
210
1.3600853871254348e-17
220
-3.1554616763191764e-17
230
1
100
AcDbArc
50
29.342054096755959
51
30.411909331088903
0
ARC
5
175
100
AcDbEntity
8
0
100
AcDbCircle
10
-2.8401734077382264
20
0.96892399813723451
30
0
40
0.093749908317378575
210
-3.479594044337447e-15
220
1.3882389638709385e-15
230
1
100
AcDbArc
50
338.14522075091554
51
342.00198689806246
0
ARC
5
176
100
AcDbEntity
8
0
100
AcDbCircle
10
-2.7367448462813053
20
0.93532198666541921
30
-1.7483827159451288e-16
40
0.014999999999999984
210
3.5642778631540515e-17
220
-7.7306703638270827e-17
230
1
100
AcDbArc
50
28.444891185825753
51
162.001986898062
0
ARC
5
177
100
AcDbEntity
8
0
100
AcDbCircle
10
-3.1250000012875274
20
0.72499990979904627
30
3.4967654318902565e-16
40
0.45656250000008941
210
3.0055599602893842e-16
220
1.1380417670286955e-16
230
1
100
AcDbArc
50
18.766794100123029
51
28.444891185793555
0
LINE
5
178
100
AcDbEntity
8
0
100
AcDbLine
10
-2.6927102489594481
20
0.87188383144624193
30
2.0303326233100878e-16
11
-2.721235329387079
21
0.86258499667729427
31
1.7750168194593365e-16
0
ARC
5
179
100
AcDbEntity
8
0
100
AcDbCircle
10
-3.1250000012875274
20
0.72499990979904627
30
3.4967654318902565e-16
40
0.42656249999990797
210
2.3111159332646825e-32
220
-7.3598084000804692e-18
230
1
100
AcDbArc
50
16.130052442646591
51
18.816832685510221
0
LINE
5
180
100
AcDbEntity
8
0
100
AcDbLine
10
-2.7152297455502752
20
0.84350688815559094
30
3.505487318438023e-16
11
-2.6866919675088003
21
0.85280986219465704
31
-1.7750165148169863e-16
0
ARC
5
181
100
AcDbEntity
8
0
100
AcDbCircle
10
-3.1250000012875274
20
0.72499990979904627
30
3.4967654318902565e-16
40
0.4565625000001452
210
4.2598362553232867e-16
220
7.8364026599946261e-17
230
1
100
AcDbArc
50
6.5282554047759431
51
16.256603642824363
0
ARC
5
182
100
AcDbEntity
8
0
100
AcDbCircle
10
-2.6863006328454957
20
0.77520255449970887
30
8.1747764617814508e-35
40
0.015000000000000234
210
-7.8890491215868986e-19
220
-4.6590691766481249e-19
230
1
100
AcDbArc
50
-125.85537807965829
51
6.5282554048068269
0
ARC
5
183
100
AcDbEntity
8
0
100
AcDbCircle
10
-2.7500000012875216
20
0.68706089034428741
30
0
40
0.093750000000000361
210
-4.1418972256053113e-17
220
3.009897043090929e-17
230
1
100
AcDbArc
50
54.144621920340803
51
58.134696500934218
0
LINE
5
184
100
AcDbEntity
8
0
100
AcDbLine
10
-2.700507114323027
20
0.76668197197421584
30
-4.9676854777330169e-18
11
-2.7005071143230097
21
0.76031244025581324
31
-1.748382914059872e-16
0
SPLINE
5
185
100
AcDbEntity
8
0
100
AcDbSpline
70
0
71
3
72
18
73
14
74
0
42
0.000000001
43
0.0000000001
44
0.0000000001
40
0.077594226319895016
40
0.077594226319895016
40
0.077594226319895016
40
0.077594226319895016
40
0.087959131090517381
40
0.087959131090517381
40
0.17583211595351794
40
0.17583211595351794
40
0.26365276220061507
40
0.26365276220061507
40
0.35148882634574713
40
0.35148882634574713
40
0.43940007730441039
40
0.43940007730441039
40
0.51420759079567158
40
0.51420759079567158
40
0.51420759079567158
40
0.51420759079567158
10
-2.7005071143076531
20
0.61444340785268281
30
0
10
-2.6993890022915892
20
0.61521325882665856
30
1.7483827159451283e-16
10
-2.6982876378607643
20
0.61600947147007845
30
-1.7483827159451283e-16
10
-2.6880168822312309
20
0.62380135873792386
30
-1.7483827159451283e-16
10
-2.6802793878236395
20
0.63249865817843665
30
-1.7483827159451283e-16
10
-2.6685793409855041
20
0.65236588260402439
30
1.7483827159451283e-16
10
-2.6647270221728494
20
0.66334336769712843
30
-1.7483827159451283e-16
10
-2.6614461726056517
20
0.68616031480577278
30
1.7483827159451283e-16
10
-2.6620499057167124
20
0.69778070993522734
30
3.4967654318902565e-16
10
-2.6676768605809147
20
0.7201475416914197
30
-1.7483827159451283e-16
10
-2.6726499387834632
20
0.7306790343564733
30
1.7483827159451283e-16
10
-2.685328561056374
20
0.74786213134275947
30
0
10
-2.69242824200155
20
0.754738717973789
30
-1.7483827159451283e-16
10
-2.7005071143210557
20
0.76031244025864475
30
-1.7483827159451283e-16
0
LINE
5
186
100
AcDbEntity
8
0
100
AcDbLine
10
-2.7005071143076531
20
0.61444340785268281
30
0
11
-2.7005071143230097
21
0.60743980871433989
31
1.7483827914607817e-16
0
ARC
5
187
100
AcDbEntity
8
0
100
AcDbCircle
10
-2.7500000012875216
20
0.68706089034428741
30
0
40
0.093750000000025341
210
-1.0349926962526553e-15
220
1.5525222728807489e-15
230
1
100
AcDbArc
50
301.8653034990686
51
307.73925345784988
0
ARC
5
188
100
AcDbEntity
8
0
100
AcDbCircle
10
-2.6834375012873566
20
0.60106091305517384
30
-1.7483827159451288e-16
40
0.015000000000000357
210
3.3976652908870901e-17
220
-5.1258270424732742e-17
230
1
100
AcDbArc
50
0
51
127.73925345784981
0
LINE
5
189
100
AcDbEntity
8
0
100
AcDbLine
10
-2.6684375012873565
20
0.60106091305517373
30
-1.7534792138814595e-16
11
-2.6684375012873578
21
0.5453048125257971
31
-1.7483827159451283e-16
0
LINE
5
190
100
AcDbEntity
8
0
100
AcDbLine
10
-2.6684375012873578
20
0.5453048125257971
30
-1.7483827159451283e-16
11
-2.7005071143230097
21
0.5453048125257971
31
-1.7483827159451283e-16
0
LINE
5
191
100
AcDbEntity
8
0
100
AcDbLine
10
-2.7005071143230097
20
0.5453048125257971
30
-1.7483827159451283e-16
11
-2.7005071143230097
21
0.5253048125257832
31
-1.7483827159451283e-16
0
ENDSEC
0
SECTION
2
OBJECTS
0
DICTIONARY
5
C
100
AcDbDictionary
3
ACAD_GROUP
350
D
3
ACAD_MLINESTYLE
350
17
0
DICTIONARY
5
D
100
AcDbDictionary
0
DICTIONARY
5
1A
330
C
100
AcDbDictionary
0
DICTIONARY
5
17
100
AcDbDictionary
0
ENDSEC
0
EOF
