0
SECTION
2
HEADER
9
$INSUNITS
70
1
9
$ACADVER
1
AC1014
9
$HANDSEED
5
FFFF
0
ENDSEC
0
SECTION
2
TABLES
0
TABLE
2
VPORT
5
8
100
AcDbSymbolTable
0
ENDTAB
0
TABLE
2
LTYPE
5
5
100
AcDbSymbolTable
0
LTYPE
5
14
100
AcDbSymbolTableRecord
100
AcDbLinetypeTableRecord
2
BYBLOCK
70
0
0
LTYPE
5
15
100
AcDbSymbolTableRecord
100
AcDbLinetypeTableRecord
2
BYLAYER
70
0
0
ENDTAB
0
TABLE
2
LAYER
5
2
100
AcDbSymbolTable
70
2
0
LAYER
5
50
100
AcDbSymbolTableRecord
100
AcDbLayerTableRecord
2
0
70
0
6
CONTINUOUS
0
ENDTAB
0
TABLE
2
STYLE
5
3
100
AcDbSymbolTable
70
1
0
STYLE
5
11
100
AcDbSymbolTableRecord
100
AcDbTextStyleTableRecord
2
STANDARD
70
0
0
ENDTAB
0
TABLE
2
VIEW
5
6
100
AcDbSymbolTable
70
0
0
ENDTAB
0
TABLE
2
UCS
5
7
100
AcDbSymbolTable
70
0
0
ENDTAB
0
TABLE
2
APPID
5
9
100
AcDbSymbolTable
70
2
0
APPID
5
12
100
AcDbSymbolTableRecord
100
AcDbRegAppTableRecord
2
ACAD
70
0
0
ENDTAB
0
TABLE
2
DIMSTYLE
5
A
100
AcDbSymbolTable
70
1
0
ENDTAB
0
TABLE
2
BLOCK_RECORD
5
1
100
AcDbSymbolTable
70
1
0
BLOCK_RECORD
5
1F
100
AcDbSymbolTableRecord
100
AcDbBlockTableRecord
2
*MODEL_SPACE
0
BLOCK_RECORD
5
1B
100
AcDbSymbolTableRecord
100
AcDbBlockTableRecord
2
*PAPER_SPACE
0
ENDTAB
0
ENDSEC
0
SECTION
2
BLOCKS
0
BLOCK
5
20
100
AcDbEntity
100
AcDbBlockBegin
2
*MODEL_SPACE
0
ENDBLK
5
21
100
AcDbEntity
100
AcDbBlockEnd
0
BLOCK
5
1C
100
AcDbEntity
100
AcDbBlockBegin
2
*PAPER_SPACE
0
ENDBLK
5
1D
100
AcDbEntity
100
AcDbBlockEnd
0
ENDSEC
0
SECTION
2
ENTITIES
0
LWPOLYLINE
5
100
100
AcDbEntity
8
0
100
AcDbPolyline
90
8
70
1
43
0.0
10
0.12499999935703827
20
-1.8145506828564402
42
-2.4142135623730674
10
0.10549999935703834
20
-1.8340506828564405
10
-0.10550000064296176
20
-1.8340506828564387
42
-2.4142135623730931
10
-0.12500000064296171
20
-1.8145506828564386
10
-0.12500000064296174
20
-1.6445506828564398
42
-2.4142135623731007
10
-0.10550000064296181
20
-1.6250506828564397
10
0.10549999935703792
20
-1.6250506828564397
42
-2.4142135623730976
10
0.12499999935703782
20
-1.6445506828564398
0
LWPOLYLINE
5
101
100
AcDbEntity
8
0
100
AcDbPolyline
90
8
70
1
43
0.0
10
1.8145506810355037
20
0.12499999882202661
42
-2.4142135623730674
10
1.8340506810355039
20
0.10549999882202667
10
1.8340506810355026
20
-0.10550000117797342
42
-2.4142135623730616
10
1.8145506810355023
20
-0.12500000117797339
10
1.6445506810355033
20
-0.12500000117797344
42
-2.4142135623730976
10
1.6250506810355034
20
-0.10550000117797348
10
1.6250506810355034
20
0.10549999882202625
42
-2.4142135623730976
10
1.6445506810355033
20
0.12499999882202616
0
LWPOLYLINE
5
102
100
AcDbEntity
8
0
100
AcDbPolyline
90
8
70
1
43
0.0
10
-0.12500000064296307
20
1.8145506805004923
42
-2.4142135623730674
10
-0.10550000064296312
20
1.8340506805004926
10
0.10549999935703698
20
1.8340506805004908
42
-2.4142135623730931
10
0.12499999935703694
20
1.814550680500491
10
0.12499999935703694
20
1.6445506805004919
42
-2.4142135623731025
10
0.10549999935703701
20
1.6250506805004921
10
-0.10550000064296275
20
1.6250506805004921
42
-2.4142135623731007
10
-0.12500000064296263
20
1.6445506805004919
0
CIRCLE
5
103
100
AcDbEntity
8
0
100
AcDbCircle
10
-6.429624986406731e-10
20
-1.1779740131715795e-09
30
0
40
3.8015624999999993
210
0
220
0
230
1
0
CIRCLE
5
104
100
AcDbEntity
8
0
100
AcDbCircle
10
3.0103805552420781
20
-0.208594159055454
30
0
40
0.019685039370078667
210
0
220
0
230
1
0
CIRCLE
5
105
100
AcDbEntity
8
0
100
AcDbCircle
10
3.3253411851633365
20
-0.20859415905545398
30
0
40
0.019685039370079017
210
0
220
0
230
1
0
CIRCLE
5
106
100
AcDbEntity
8
0
100
AcDbCircle
10
2.036839860130442
20
-2.3318365490535053
30
0
40
0.019685039370078667
210
0
220
0
230
1
0
CIRCLE
5
107
100
AcDbEntity
8
0
100
AcDbCircle
10
2.2595506573545503
20
-2.5545473462776136
30
0
40
0.019685039370078667
210
0
220
0
230
1
0
CIRCLE
5
108
100
AcDbEntity
8
0
100
AcDbCircle
10
-0.20859415852044202
20
-3.0891207145433293
30
0
40
0.019685039370078625
210
7.7037197775489434e-34
220
-1.5407439555097887e-33
230
1
0
CIRCLE
5
109
100
AcDbEntity
8
0
100
AcDbCircle
10
-0.208594158520442
20
-3.4040813444645881
30
0
40
0.019685039370078757
210
0
220
0
230
1
0
CIRCLE
5
110
100
AcDbEntity
8
0
100
AcDbCircle
10
-2.1481952600284209
20
2.443191945309612
30
0
40
0.019685039370078667
210
0
220
0
230
1
0
CIRCLE
5
111
100
AcDbEntity
8
0
100
AcDbCircle
10
0.20859415723451849
20
3.246601027148011
30
0
40
0.019685039370078733
210
0
220
0
230
1
0
CIRCLE
5
112
100
AcDbEntity
8
0
100
AcDbCircle
10
2.3875142465385957
20
2.092517558901458
30
0
40
0.019685039370078667
210
0
220
0
230
1
0
CIRCLE
5
113
100
AcDbEntity
8
0
100
AcDbCircle
10
2.5545473444566777
20
2.2595506568195396
30
0
40
0.019685039370078667
210
0
220
0
230
1
0
CIRCLE
5
114
100
AcDbEntity
8
0
100
AcDbCircle
10
2.3318365472325695
20
2.0368398595954309
30
0
40
0.019685039370078667
210
0
220
0
230
1
0
CIRCLE
5
115
100
AcDbEntity
8
0
100
AcDbCircle
10
0.20859415723451849
20
3.1678608696676962
30
0
40
0.019685039370078691
210
0
220
0
230
1
0
CIRCLE
5
116
100
AcDbEntity
8
0
100
AcDbCircle
10
-3.3253411864492621
20
0.20859415669950629
30
0
40
0.019685039370079017
210
0
220
0
230
1
0
CIRCLE
5
117
100
AcDbEntity
8
0
100
AcDbCircle
10
-0.208594158520442
20
-3.3253411869842737
30
0
40
0.019685039370078799
210
7.7037197775489434e-34
220
-1.5407439555097887e-33
230
1
0
CIRCLE
5
118
100
AcDbEntity
8
0
100
AcDbCircle
10
-0.20859415852044208
20
-3.010380557063014
30
0
40
0.019685039370078712
210
7.7037197775489434e-34
220
-1.5407439555097887e-33
230
1
0
CIRCLE
5
119
100
AcDbEntity
8
0
100
AcDbCircle
10
2.2038729580485232
20
-2.4988696469715865
30
0
40
0.019685039370078667
210
0
220
0
230
1
0
CIRCLE
5
120
100
AcDbEntity
8
0
100
AcDbCircle
10
1.9811621608244141
20
-2.2761588497474778
30
0
40
0.019685039370078667
210
0
220
0
230
1
0
CIRCLE
5
121
100
AcDbEntity
8
0
100
AcDbCircle
10
3.2466010276830217
20
-0.20859415905545398
30
0
40
0.019685039370079017
210
0
220
0
230
1
0
CIRCLE
5
122
100
AcDbEntity
8
0
100
AcDbCircle
10
3.089120712722393
20
-0.20859415905545398
30
0
40
0.019685039370078667
210
0
220
0
230
1
0
CIRCLE
5
123
100
AcDbEntity
8
0
100
AcDbCircle
10
3.4040813426436514
20
-0.20859415905545392
30
0
40
0.019685039370079017
210
0
220
0
230
1
0
CIRCLE
5
124
100
AcDbEntity
8
0
100
AcDbCircle
10
2.0925175594364687
20
-2.3875142483595324
30
0
40
0.019685039370078667
210
0
220
0
230
1
0
CIRCLE
5
125
100
AcDbEntity
8
0
100
AcDbCircle
10
-0.20859415852044214
20
-2.8529002421023839
30
0
40
0.019685039370078712
210
7.7037197775489434e-34
220
-1.5407439555097887e-33
230
1
0
CIRCLE
5
126
100
AcDbEntity
8
0
100
AcDbCircle
10
-0.20859415852044202
20
-3.1678608720236441
30
0
40
0.019685039370078712
210
7.7037197775489434e-34
220
-1.5407439555097887e-33
230
1
0
CIRCLE
5
127
100
AcDbEntity
8
0
100
AcDbCircle
10
-2.554547345742602
20
-2.2595506591754875
30
0
40
0.019685039370078667
210
0
220
0
230
1
0
CIRCLE
5
128
100
AcDbEntity
8
0
100
AcDbCircle
10
-2.2038729593344484
20
2.4988696446156391
30
0
40
0.019685039370078667
210
0
220
0
230
1
0
CIRCLE
5
129
100
AcDbEntity
8
0
100
AcDbCircle
10
0.20859415723451852
20
3.3253411846283258
30
0
40
0.019685039370078823
210
0
220
0
230
1
0
CIRCLE
5
130
100
AcDbEntity
8
0
100
AcDbCircle
10
2.4431919458446232
20
2.148195258207485
30
0
40
0.019685039370078667
210
0
220
0
230
1
0
CIRCLE
5
131
100
AcDbEntity
8
0
100
AcDbCircle
10
-6.429624986406731e-10
20
-1.1779740131715795e-09
30
0
40
0.12499999999999997
210
-1.6146174373942349e-64
220
-1.540743955509789e-33
230
1
0
CIRCLE
5
132
100
AcDbEntity
8
0
100
AcDbCircle
10
2.4988696451506502
20
2.2038729575135125
30
0
40
0.019685039370078667
210
0
220
0
230
1
0
CIRCLE
5
133
100
AcDbEntity
8
0
100
AcDbCircle
10
0.20859415723451852
20
3.4040813421086402
30
0
40
0.019685039370078757
210
0
220
0
230
1
0
CIRCLE
5
134
100
AcDbEntity
8
0
100
AcDbCircle
10
-2.2595506586404746
20
2.5545473439216666
30
0
40
0.019685039370078667
210
0
220
0
230
1
0
CIRCLE
5
135
100
AcDbEntity
8
0
100
AcDbCircle
10
-3.404081343929577
20
0.20859415669950629
30
0
40
0.019685039370079017
210
0
220
0
230
1
0
CIRCLE
5
136
100
AcDbEntity
8
0
100
AcDbCircle
10
-0.20859415852044202
20
-3.2466010295039589
30
0
40
0.019685039370078757
210
0
220
0
230
1
0
CIRCLE
5
137
100
AcDbEntity
8
0
100
AcDbCircle
10
-0.20859415852044208
20
-2.9316403995826992
30
0
40
0.019685039370078757
210
0
220
0
230
1
0
CIRCLE
5
138
100
AcDbEntity
8
0
100
AcDbCircle
10
2.1481952587424957
20
-2.4431919476655595
30
0
40
0.019685039370078667
210
0
220
0
230
1
0
CIRCLE
5
139
100
AcDbEntity
8
0
100
AcDbCircle
10
1.9254844615183868
20
-2.2204811504414503
30
0
40
0.019685039370078667
210
0
220
0
230
1
0
CIRCLE
5
140
100
AcDbEntity
8
0
100
AcDbCircle
10
3.1678608702027069
20
-0.20859415905545398
30
0
40
0.019685039370078667
210
0
220
0
230
1
0
LWPOLYLINE
5
141
100
AcDbEntity
8
0
100
AcDbPolyline
90
8
70
1
43
0.0
10
1.9037879619806375
20
-2.0515732810695608
42
-2.4142135623731371
10
1.9037879619806375
20
-2.023734431416548
10
2.0237344295956121
20
-1.9037879638015722
42
-2.4142135623730949
10
2.0515732792486259
20
-1.9037879638015722
10
2.5156294614163142
20
-2.3678441459692601
42
-2.4142135623731584
10
2.5156294614163142
20
-2.3956829956222729
10
2.3956829938013384
20
-2.5156294632372487
42
-2.4142135623731158
10
2.3678441441483256
20
-2.5156294632372487
0
LWPOLYLINE
5
142
100
AcDbEntity
8
0
100
AcDbPolyline
90
8
70
1
43
0.0
10
2.7968627559819743
20
-0.10450000117797274
10
3.4531373025065975
20
-0.10450000117797309
42
2.4142135623731251
10
3.4728223418766766
20
-0.084814961807894412
10
3.4728223418766766
20
0.084814959451948765
42
2.4142135623731251
10
3.4531373025065983
20
0.10449999882202711
10
2.7968627559819748
20
0.10449999882202711
42
2.4142135623730949
10
2.7771777166118961
20
0.084814959451948307
10
2.7771777166118965
20
-0.084814961807894565
42
2.4142135623731704
0
LWPOLYLINE
5
143
100
AcDbEntity
8
0
100
AcDbPolyline
90
8
70
1
43
0.0
10
2.0515732792486245
20
1.9037879614456261
10
2.5156294614163128
20
2.367844143613314
42
2.4142135623731158
10
2.5156294614163124
20
2.3956829932663273
10
2.3956829938013362
20
2.5156294608813021
42
2.4142135623731371
10
2.3678441441483233
20
2.5156294608813021
10
1.9037879619806362
20
2.0515732787136143
42
2.4142135623730949
10
1.9037879619806362
20
2.0237344290606005
10
2.0237344295956117
20
1.9037879614456259
42
2.4142135623731584
0
LWPOLYLINE
5
144
100
AcDbEntity
8
0
100
AcDbPolyline
90
8
70
1
43
0.0
10
0.10449999935703649
20
2.7968627554469627
10
0.10449999935703681
20
3.4531373019715863
42
2.4142135623731251
10
0.084814959986957802
20
3.472822341341665
10
-0.084814961272885028
20
3.472822341341665
42
2.4142135623731251
10
-0.10450000064296339
20
3.4531373019715854
10
-0.10450000064296336
20
2.7968627554469627
42
2.4142135623730949
10
-0.084814961272884515
20
2.777177716076884
10
0.084814959986958136
20
2.7771777160768845
42
2.4142135623731553
0
LWPOLYLINE
5
145
100
AcDbEntity
8
0
100
AcDbPolyline
90
8
70
1
43
0.0
10
-1.903787963266562
20
2.0515732787136134
10
-2.3678441454342494
20
2.5156294608813012
42
2.4142135623730949
10
-2.3956829950872631
20
2.5156294608813012
10
-2.5156294627022375
20
2.3956829932663251
42
2.4142135623732237
10
-2.5156294627022375
20
2.3678441436133122
10
-2.0515732805345501
20
1.9037879614456248
42
2.4142135623730949
10
-2.0237344308815364
20
1.9037879614456248
10
-1.9037879632665626
20
2.0237344290606005
42
2.4142135623732024
0
LWPOLYLINE
5
146
100
AcDbEntity
8
0
100
AcDbPolyline
90
8
70
1
43
0.0
10
-2.7968627572678999
20
0.10449999882202519
10
-3.4531373037925235
20
0.10449999882202572
42
2.4142135623731251
10
-3.4728223431626022
20
0.084814959451946725
10
-3.4728223431626022
20
-0.08481496180789648
42
2.4142135623731553
10
-3.4531373037925226
20
-0.10450000117797449
10
-2.796862757267899
20
-0.10450000117797449
42
2.4142135623731251
10
-2.7771777178978208
20
-0.0848149618078958
10
-2.7771777178978212
20
0.084814959451947017
42
2.4142135623731704
0
LWPOLYLINE
5
147
100
AcDbEntity
8
0
100
AcDbPolyline
90
8
70
1
43
0.0
10
-2.0515732805345497
20
-1.9037879638015736
10
-2.5156294627022375
20
-2.3678441459692614
42
2.4142135623731158
10
-2.5156294627022371
20
-2.3956829956222747
10
-2.3956829950872609
20
-2.5156294632372491
42
2.4142135623732024
10
-2.367844145434248
20
-2.5156294632372496
10
-1.9037879632665613
20
-2.0515732810695617
42
2.4142135623730949
10
-1.9037879632665613
20
-2.023734431416548
10
-2.0237344308815373
20
-1.903787963801574
42
2.4142135623732237
0
LWPOLYLINE
5
148
100
AcDbEntity
8
0
100
AcDbPolyline
90
8
70
1
43
0.0
10
-0.10450000064296183
20
-2.796862757802911
10
-0.10450000064296217
20
-3.4531373043275346
42
2.4142135623731251
10
-0.084814961272883502
20
-3.4728223436976138
10
0.08481495998695969
20
-3.4728223436976129
42
2.4142135623731251
10
0.10449999935703803
20
-3.4531373043275342
10
0.10449999935703784
20
-2.7968627578029106
42
2.4142135623730949
10
0.084814959986959162
20
-2.7771777184328319
10
-0.084814961272883654
20
-2.7771777184328323
42
2.4142135623731704
0
LWPOLYLINE
5
149
100
AcDbEntity
8
0
100
AcDbPolyline
90
8
70
1
43
0.0
10
-1.8145506823214286
20
-0.12500000117797441
42
-2.4142135623730674
10
-1.8340506823214289
20
-0.10550000117797448
10
-1.8340506823214269
20
0.10549999882202563
42
-2.4142135623731233
10
-1.8145506823214272
20
0.12499999882202559
10
-1.6445506823214284
20
0.12499999882202556
42
-2.4142135623731007
10
-1.6250506823214284
20
0.10549999882202563
10
-1.6250506823214284
20
-0.1055000011779741
42
-2.4142135623730976
10
-1.6445506823214284
20
-0.125000001177974
0
ENDSEC
0
SECTION
2
OBJECTS
0
DICTIONARY
5
C
100
AcDbDictionary
3
ACAD_GROUP
350
D
3
ACAD_MLINESTYLE
350
17
0
DICTIONARY
5
D
100
AcDbDictionary
0
DICTIONARY
5
1A
330
C
100
AcDbDictionary
0
DICTIONARY
5
17
100
AcDbDictionary
0
ENDSEC
0
EOF
