0
SECTION
2
HEADER
9
$INSUNITS
70
1
9
$ACADVER
1
AC1014
9
$HANDSEED
5
FFFF
0
ENDSEC
0
SECTION
2
TABLES
0
TABLE
2
VPORT
5
8
100
AcDbSymbolTable
0
ENDTAB
0
TABLE
2
LTYPE
5
5
100
AcDbSymbolTable
0
LTYPE
5
14
100
AcDbSymbolTableRecord
100
AcDbLinetypeTableRecord
2
BYBLOCK
70
0
0
LTYPE
5
15
100
AcDbSymbolTableRecord
100
AcDbLinetypeTableRecord
2
BYLAYER
70
0
0
ENDTAB
0
TABLE
2
LAYER
5
2
100
AcDbSymbolTable
70
2
0
LAYER
5
50
100
AcDbSymbolTableRecord
100
AcDbLayerTableRecord
2
0
70
0
6
CONTINUOUS
0
ENDTAB
0
TABLE
2
STYLE
5
3
100
AcDbSymbolTable
70
1
0
STYLE
5
11
100
AcDbSymbolTableRecord
100
AcDbTextStyleTableRecord
2
STANDARD
70
0
0
ENDTAB
0
TABLE
2
VIEW
5
6
100
AcDbSymbolTable
70
0
0
ENDTAB
0
TABLE
2
UCS
5
7
100
AcDbSymbolTable
70
0
0
ENDTAB
0
TABLE
2
APPID
5
9
100
AcDbSymbolTable
70
2
0
APPID
5
12
100
AcDbSymbolTableRecord
100
AcDbRegAppTableRecord
2
ACAD
70
0
0
ENDTAB
0
TABLE
2
DIMSTYLE
5
A
100
AcDbSymbolTable
70
1
0
ENDTAB
0
TABLE
2
BLOCK_RECORD
5
1
100
AcDbSymbolTable
70
1
0
BLOCK_RECORD
5
1F
100
AcDbSymbolTableRecord
100
AcDbBlockTableRecord
2
*MODEL_SPACE
0
BLOCK_RECORD
5
1B
100
AcDbSymbolTableRecord
100
AcDbBlockTableRecord
2
*PAPER_SPACE
0
ENDTAB
0
ENDSEC
0
SECTION
2
BLOCKS
0
BLOCK
5
20
100
AcDbEntity
100
AcDbBlockBegin
2
*MODEL_SPACE
0
ENDBLK
5
21
100
AcDbEntity
100
AcDbBlockEnd
0
BLOCK
5
1C
100
AcDbEntity
100
AcDbBlockBegin
2
*PAPER_SPACE
0
ENDBLK
5
1D
100
AcDbEntity
100
AcDbBlockEnd
0
ENDSEC
0
SECTION
2
ENTITIES
0
ARC
5
100
100
AcDbEntity
8
0
100
AcDbCircle
10
-3.3999999999999999
20
0.66229254472956689
30
-1.0741567779772099e-47
40
0.029999999999999836
210
-4.4148132191087744e-32
220
6.0019500064614321e-32
230
1
100
AcDbArc
50
-160.52877936551991
51
160.52877936551991
0
LINE
5
101
100
AcDbEntity
8
0
100
AcDbLine
10
-3.4282842712474637
20
0.6522925447295721
30
-6.4850274531577777e-34
11
-3.5815625000000031
21
0.65229254472956688
31
1.9007524076255463e-45
0
LINE
5
102
100
AcDbEntity
8
0
100
AcDbLine
10
-3.5815625000000031
20
0.65229254472956688
30
1.9007524076255463e-45
11
-3.5815625000000058
21
0.59653644420029805
31
2.5860576974498343e-46
0
ARC
5
103
100
AcDbEntity
8
0
100
AcDbCircle
10
-3.5665625000000065
20
0.59653644420029894
30
1.296396111351805e-47
40
0.014999999999999309
210
1.6939397995844482e-44
220
-1.0739018318198227e-32
230
1
100
AcDbArc
50
180
51
307.73925345774251
0
ARC
5
104
100
AcDbEntity
8
0
100
AcDbCircle
10
-3.5
20
0.51053646691106258
30
-1.9866849498638051e-48
40
0.093749999999999736
210
-2.7768707636999573e-32
220
6.8856551641028074e-33
230
1
100
AcDbArc
50
-127.73925345773883
51
127.73925345774448
0
ARC
5
105
100
AcDbEntity
8
0
100
AcDbCircle
10
-3.5665624999999976
20
0.42453648962182022
30
-1.2495030676020403e-59
40
0.014999999999999724
210
4.4188157659140117e-32
220
5.7091914443287318e-32
230
1
100
AcDbArc
50
52.260746542263071
51
180
0
LINE
5
106
100
AcDbEntity
8
0
100
AcDbLine
10
-3.5815624999999969
20
0.42453648962181834
30
1.6297466932570637e-45
11
-3.5815624999999529
21
0.094999999999995824
31
1.9998846193612053e-45
0
LINE
5
107
100
AcDbEntity
8
0
100
AcDbLine
10
-3.5815624999999529
20
0.094999999999995824
30
1.9998846193612053e-45
11
-3.4777436023621573
21
0.094999999999999821
31
3.8433675992559101e-30
0
ARC
5
108
100
AcDbEntity
8
0
100
AcDbCircle
10
-3.4728223425196383
20
0.094999999999999835
30
0
40
0.0049212598425194048
210
-4.8669610690488001e-47
220
-1.8300107836295757e-32
230
1
100
AcDbArc
50
-90
51
180
0
LINE
5
109
100
AcDbEntity
8
0
100
AcDbLine
10
-3.4728223425196383
20
0.090078740157480422
30
-9.0059585808536984e-35
11
-3.4728223425196383
21
-0.12500000000000022
31
0
0
LINE
5
110
100
AcDbEntity
8
0
100
AcDbLine
10
-3.4728223425196383
20
-0.12500000000000022
30
0
11
-2.7771776574800868
21
-0.12500000000000025
31
-1.5528757976791565e-31
0
LINE
5
111
100
AcDbEntity
8
0
100
AcDbLine
10
-2.7771776574800868
20
-0.12500000000000025
30
-1.5528757976791565e-31
11
-2.7771776574800868
21
0.090078740157480047
31
0
0
ARC
5
112
100
AcDbEntity
8
0
100
AcDbCircle
10
-2.7771776574800868
20
0.094999999999999807
30
0
40
0.0049212598425197544
210
-1.6291558652422053e-45
220
-6.1306807814210405e-46
230
1
100
AcDbArc
50
0
51
270
0
LINE
5
113
100
AcDbEntity
8
0
100
AcDbLine
10
-2.7722563976375669
20
0.094999999999999793
30
8.0174993368219829e-48
11
-2.6684374999997722
21
0.095000000000095397
31
3.8433675992558387e-30
0
LINE
5
114
100
AcDbEntity
8
0
100
AcDbLine
10
-2.6684374999997722
20
0.095000000000095397
30
3.8433675992558387e-30
11
-2.6684374999999694
21
0.15697571143677519
31
9.1287836719979154e-45
0
ARC
5
115
100
AcDbEntity
8
0
100
AcDbCircle
10
-2.6834374999999686
20
0.15697571143672759
30
2.2358623842535026e-47
40
0.014999999999999309
210
-1.8996806964147189e-43
220
-1.3144833786697446e-31
230
1
100
AcDbArc
50
0
51
127.73925345776178
0
ARC
5
116
100
AcDbEntity
8
0
100
AcDbCircle
10
-2.75
20
0.24297568872594533
30
8.6201923248327815e-47
40
0.093749999999999764
210
1.4961278655442358e-32
220
-2.094276711238529e-31
230
1
100
AcDbArc
50
52.260746542260243
51
307.73925345776036
0
ARC
5
117
100
AcDbEntity
8
0
100
AcDbCircle
10
-2.6834375000000006
20
0.32897566601518657
30
-9.9670973755879037e-48
40
0.014999999999999875
210
4.7519026701263023e-31
220
8.6876029527876359e-31
230
1
100
AcDbArc
50
-127.73925345773908
51
0
0
LINE
5
118
100
AcDbEntity
8
0
100
AcDbLine
10
-2.6684375000000005
20
0.32897566601518774
30
2.95822839457788e-33
11
-2.6684375000000049
21
0.3847317665444685
31
-1.8102403882148842e-46
0
LINE
5
119
100
AcDbEntity
8
0
100
AcDbLine
10
-2.6684375000000049
20
0.3847317665444685
30
-1.8102403882148842e-46
11
-2.8217157287525287
21
0.38473176654447111
31
-2.0025784294626291e-45
0
ARC
5
120
100
AcDbEntity
8
0
100
AcDbCircle
10
-2.8499999999999996
20
0.39473176654446851
30
-5.4023519770131229e-48
40
0.030000000000000162
210
-6.0582734383182656e-32
220
1.3535425440052553e-32
230
1
100
AcDbArc
50
19.471220634480293
51
340.52877936551977
0
LINE
5
121
100
AcDbEntity
8
0
100
AcDbLine
10
-2.8217157287525358
20
0.40473176654446341
30
1.5781842378065333e-33
11
-2.6684375000000067
21
0.40473176654446852
31
-2.0365204367416567e-45
0
LINE
5
122
100
AcDbEntity
8
0
100
AcDbLine
10
-2.6684375000000067
20
0.40473176654446852
30
-2.0365204367416567e-45
11
-2.6684375000000111
21
0.46048786707374312
31
2.2412500044565233e-46
0
ARC
5
123
100
AcDbEntity
8
0
100
AcDbCircle
10
-2.6834375000000112
20
0.46048786707374206
30
-7.9467397994552203e-48
40
0.015000000000000008
210
-1.4720412789122103e-44
220
-1.0739018318219539e-32
230
1
100
AcDbArc
50
0
51
127.73925345773418
0
ARC
5
124
100
AcDbEntity
8
0
100
AcDbCircle
10
-2.75
20
0.54648784436299203
30
-1.8317908690269661e-47
40
0.093750000000000125
210
-4.5393381119487897e-32
220
-1.3144833786709681e-31
230
1
100
AcDbArc
50
52.260746542260037
51
307.7392534577321
0
ARC
5
125
100
AcDbEntity
8
0
100
AcDbCircle
10
-2.6834374999999997
20
0.63248782165223327
30
6.7375165409913927e-61
40
0.014999999999999946
210
5.0393857567634156e-31
220
6.5109793146804068e-31
230
1
100
AcDbArc
50
232.2607465422596
51
360
0
LINE
5
126
100
AcDbEntity
8
0
100
AcDbLine
10
-2.6684375
20
0.63248782165223272
30
4.7518810190638674e-46
11
-2.6684374999999974
21
0.68824392218149599
31
8.6201923248327815e-47
0
LINE
5
127
100
AcDbEntity
8
0
100
AcDbLine
10
-2.6684374999999974
20
0.68824392218149599
30
8.6201923248327815e-47
11
-2.8217157287525287
21
0.68824392218149855
31
-1.9686364221836015e-45
0
ARC
5
128
100
AcDbEntity
8
0
100
AcDbCircle
10
-2.8499999999999996
20
0.69824392218149611
30
-1.1448692931418538e-48
40
0.029999999999999836
210
-4.4148132191088658e-32
220
6.0019500064616226e-32
230
1
100
AcDbArc
50
19.471220634480389
51
340.52877936551943
0
LINE
5
129
100
AcDbEntity
8
0
100
AcDbLine
10
-2.8217157287525363
20
0.7082439221814909
30
6.4850274531577273e-34
11
-2.6684374999999969
21
0.70824392218149612
31
-1.9686364221836015e-45
0
LINE
5
130
100
AcDbEntity
8
0
100
AcDbLine
10
-2.6684374999999969
20
0.70824392218149612
30
-1.9686364221836015e-45
11
-2.6684374999999938
21
0.77246246746580816
31
-1.4654326952215729e-46
0
ARC
5
131
100
AcDbEntity
8
0
100
AcDbCircle
10
-2.6816697200783617
20
0.7653977816731109
30
-1.3469050507551221e-49
40
0.015000047784987262
210
-5.3110126475648432e-33
220
9.9475744928902728e-33
230
1
100
AcDbArc
50
28.097770307046126
51
128.92660867802567
0
ARC
5
132
100
AcDbEntity
8
0
100
AcDbCircle
10
-2.75
20
0.85000000000000053
30
4.4717247685070051e-47
40
0.093749999999999875
210
-8.8526179724599436e-32
220
-5.548207405098791e-32
230
1
100
AcDbArc
50
57.165007292985635
51
308.92660867802567
0
ARC
5
133
100
AcDbEntity
8
0
100
AcDbCircle
10
-2.691033414577698
20
0.94137562204239378
30
-8.0140850519929769e-48
40
0.014999999999999715
210
2.8725634617949415e-31
220
5.1843911278114649e-31
230
1
100
AcDbArc
50
237.16500729298713
51
342.11331265003048
0
ARC
5
134
100
AcDbEntity
8
0
100
AcDbCircle
10
-3.1250000000000013
20
0.85000000000000109
30
0
40
0.45656247683983719
210
-9.8458680339935918e-34
220
-2.0509808815621644e-33
230
1
100
AcDbArc
50
10.955560362522414
51
21.931582010703735
0
LINE
5
135
100
AcDbEntity
8
0
100
AcDbLine
10
-2.7014786914732536
20
1.0205257095866982
30
2.2406452789082208e-32
11
-2.870118719354334
21
0.94829311012284634
31
1.7269243329422083e-32
0
ARC
5
136
100
AcDbEntity
8
0
100
AcDbCircle
10
-2.9000556664666419
20
0.94634909428048941
30
6.6840163143722935e-48
40
0.029999999999999895
210
-1.4648085159145903e-31
220
-1.1147558435651469e-32
230
1
100
AcDbArc
50
-317.34215863362618
51
3.715400097413271
0
LINE
5
137
100
AcDbEntity
8
0
100
AcDbLine
10
-2.8779932647436137
20
0.96667765621220803
30
3.4583332245886293e-33
11
-2.7093532368625293
21
1.0389102556760696
31
-1.7269243329425608e-32
0
ARC
5
138
100
AcDbEntity
8
0
100
AcDbCircle
10
-3.1250000000000013
20
0.85000000000000109
30
0
40
0.45656250000000598
210
2.7528609913614277e-32
220
3.0845682275448263e-32
230
1
100
AcDbArc
50
24.441659453082526
51
35.515229154312124
0
ARC
5
139
100
AcDbEntity
8
0
100
AcDbCircle
10
-2.7593651769108658
20
1.1014735678169112
30
2.2089242832384004e-47
40
0.015000022228142828
210
-7.8423427327351833e-31
220
-1.9345290973304458e-30
230
1
100
AcDbArc
50
66.466404762480323
51
169.41856381427402
0
ARC
5
140
100
AcDbEntity
8
0
100
AcDbCircle
10
-2.8662658720395666
20
1.12144364245374
30
0
40
0.093750000000000042
210
-4.4149372774228727e-32
220
1.0738555223006599e-31
230
1
100
AcDbArc
50
103.32791911328032
51
349.41856381427255
0
ARC
5
141
100
AcDbEntity
8
0
100
AcDbCircle
10
-2.8913353484371789
20
1.2272646415661541
30
2.0472956771477855e-47
40
0.014999999999999855
210
1.1590583811759912e-31
220
-7.0907100191415554e-31
230
1
100
AcDbArc
50
-76.672080886720678
51
26.280078164752968
0
ARC
5
142
100
AcDbEntity
8
0
100
AcDbCircle
10
-3.1250000000000013
20
0.85000000000000109
30
0
40
0.45656248093700091
210
-2.2652089320695887e-32
220
1.2603267258020965e-32
230
1
100
AcDbArc
50
57.231255207905797
51
68.304823474487918
0
LINE
5
143
100
AcDbEntity
8
0
100
AcDbLine
10
-2.9562232088210356
20
1.2742212997547047
30
1.444180540968537e-32
11
-3.0202921438894728
21
1.1023138275836988
31
-2.384471375091886e-33
0
ARC
5
144
100
AcDbEntity
8
0
100
AcDbCircle
10
-3.0395401949925769
20
1.0793026883521708
30
-3.9102337254734636e-48
40
0.029999999999999673
210
-1.4219561660649945e-33
220
6.3861876155423519e-33
230
1
100
AcDbArc
50
-270.96891716984175
51
50.088641561196425
0
LINE
5
145
100
AcDbEntity
8
0
100
AcDbLine
10
-3.0390328953287669
20
1.1092983988296887
30
-1.9083687688592518e-34
11
-2.9749639602603342
21
1.2812058710007044
31
2.3844713750901276e-33
0
ARC
5
146
100
AcDbEntity
8
0
100
AcDbCircle
10
-3.1250000000000013
20
0.85000000000000109
30
0
40
0.45656249999998705
210
1.2979506603130792e-31
220
-5.069135308721369e-32
230
1
100
AcDbArc
50
70.81490091686689
51
81.888470618091887
0
ARC
5
147
100
AcDbEntity
8
0
100
AcDbCircle
10
-3.0547565176669527
20
1.2881707798971758
30
9.1589543451348306e-48
40
0.01500002222814373
210
4.3300941566691379e-31
220
-9.002364065838116e-31
230
1
100
AcDbArc
50
112.83964622625425
51
215.79180527804257
0
ARC
5
148
100
AcDbEntity
8
0
100
AcDbCircle
10
-3.1429688054855904
20
1.2245692486435826
30
2.6938101015102442e-49
40
0.093749999999999972
210
2.6077779572418974e-32
220
6.5943692204519897e-32
230
1
100
AcDbArc
50
-210.2988394229105
51
35.791805278043292
0
ARC
5
149
100
AcDbEntity
8
0
100
AcDbCircle
10
-3.2368641829824885
20
1.2794347258101491
30
-2.0203575761326832e-49
40
0.014999999999999814
210
5.4965427453082701e-32
220
-3.9151355944182895e-32
230
1
100
AcDbArc
50
-30.298839422910685
51
72.653319628997721
0
ARC
5
150
100
AcDbEntity
8
0
100
AcDbCircle
10
-3.1250000000000013
20
0.85000000000000109
30
0
40
0.4565624809370214
210
1.7751761618088425e-31
220
4.3016879234709546e-32
230
1
100
AcDbArc
50
103.60449667170542
51
114.67806493827135
0
LINE
5
151
100
AcDbEntity
8
0
100
AcDbLine
10
-3.3156236238032588
20
1.2648637733694914
30
3.1302319765782685e-32
11
-3.2353933028250448
21
1.0998786133557097
31
-7.7598887247471021e-33
0
ARC
5
152
100
AcDbEntity
8
0
100
AcDbCircle
10
-3.2320170368706007
20
1.0700692049716889
30
-1.2122145456796098e-47
40
0.030000000000000054
210
-9.6084649208468589e-32
220
-1.2749046463733363e-31
230
1
100
AcDbArc
50
-224.59567570605677
51
96.461883024982598
0
LINE
5
153
100
AcDbEntity
8
0
100
AcDbLine
10
-3.2533794080009333
20
1.0911321843357282
30
6.3273308944883363e-34
11
-3.333609728979158
21
1.2561173443495135
31
7.7598887247481873e-33
0
ARC
5
154
100
AcDbEntity
8
0
100
AcDbCircle
10
-3.1250000000000013
20
0.85000000000000109
30
0
40
0.45656250000000825
210
1.4794775887689818e-31
220
5.6888614778668113e-32
230
1
100
AcDbArc
50
117.18814238065018
51
128.26171208187955
0
ARC
5
155
100
AcDbEntity
8
0
100
AcDbCircle
10
-3.3937047636419968
20
1.2031650169001591
30
8.3878512035775232e-47
40
0.015000022228142819
210
-1.9054019576704603e-30
220
7.2480115084612068e-31
230
1
100
AcDbArc
50
159.21288769002416
51
262.16504674185416
0
ARC
5
156
100
AcDbEntity
8
0
100
AcDbCircle
10
-3.4085295584553936
20
1.0954302130587796
30
-3.3942007279029078e-47
40
0.093750000000000097
210
9.1197260435162742e-32
220
-7.4244228010881762e-33
230
1
100
AcDbArc
50
-163.92559795913337
51
82.165046741851313
0
ARC
5
157
100
AcDbEntity
8
0
100
AcDbCircle
10
-3.5130277546773478
20
1.0653189280254571
30
-9.2599722239414649e-48
40
0.015000000000000048
210
-5.0980687814941089e-31
220
-1.6243213169815608e-31
230
1
100
AcDbArc
50
16.074402040866886
51
119.02656109268764
0
ARC
5
158
100
AcDbEntity
8
0
100
AcDbCircle
10
-3.1250000000000013
20
0.85000000000000109
30
0
40
0.45656248093700669
210
-8.6384662489436447e-33
220
-1.5687904377386034e-32
230
1
100
AcDbArc
50
149.97773813548625
51
161.01100965678199
0
LINE
5
159
100
AcDbEntity
8
0
100
AcDbLine
10
-3.556716879010513
20
0.99855925680908586
30
1.0801929343300253e-33
11
-3.3829706889237694
21
0.94207851585128854
31
5.0373746156731469e-33
0
ARC
5
160
100
AcDbEntity
8
0
100
AcDbCircle
10
-3.3591635011086964
20
0.92382426132423812
30
1.2674376527605698e-46
40
0.030000000000000585
210
-8.8740597291359288e-32
220
-1.4948511557383977e-31
230
1
100
AcDbArc
50
-178.53688665891192
51
142.52067207212892
0
LINE
5
161
100
AcDbEntity
8
0
100
AcDbLine
10
-3.3891537202195972
20
0.92305826022749371
30
-2.7758557192764562e-33
11
-3.5628088944559222
21
0.97950941410387415
31
-5.0143992127787419e-33
0
ARC
5
162
100
AcDbEntity
8
0
100
AcDbCircle
10
-3.1250000000000013
20
0.85000000000000109
30
0
40
0.45656249999999343
210
-9.0904752582306832e-33
220
7.9879003163749836e-33
230
1
100
AcDbArc
50
163.52111584172252
51
174.27830895987216
0
ARC
5
163
100
AcDbEntity
8
0
100
AcDbCircle
10
-3.565323156563601
20
0.90099370703573589
30
-4.9835486877939519e-47
40
0.01500000000039812
210
-5.7839788206739735e-31
220
-3.3461323549526918e-31
230
1
100
AcDbArc
50
201.41187512244426
51
306.91809173081549
0
ARC
5
164
100
AcDbEntity
8
0
100
AcDbCircle
10
-3.5
20
0.81404862254807064
30
0
40
0.093749999999999986
210
1.3620637940912166e-32
220
6.5053295407706748e-33
230
1
100
AcDbArc
50
-128.79220268701792
51
126.91809173081283
0
ARC
5
165
100
AcDbEntity
8
0
100
AcDbCircle
10
-3.5681316299216688
20
0.72928634612620458
30
1.4681265053230832e-47
40
0.015000000000000464
210
-1.7069723945688741e-32
220
-9.5364114237800337e-32
230
1
100
AcDbArc
50
51.207797312980404
51
153.55797255719975
0
LINE
5
166
100
AcDbEntity
8
0
100
AcDbLine
10
-3.5815624104975545
20
0.73596572731928223
30
7.2968382446896645e-34
11
-3.5815625000000022
21
0.67229254472956701
31
1.2068269254765893e-46
0
LINE
5
167
100
AcDbEntity
8
0
100
AcDbLine
10
-3.5815625000000022
20
0.67229254472956701
30
1.2068269254765893e-46
11
-3.4282842712474637
21
0.67229254472956168
31
-1.8488927466074432e-33
0
SPLINE
5
168
100
AcDbEntity
8
0
100
AcDbSpline
70
0
71
3
72
27
73
23
74
0
42
0.000000001
43
0.0000000001
44
0.0000000001
40
0.22125452998531342
40
0.22125452998531342
40
0.22125452998531342
40
0.22125452998531342
40
0.22220725383760445
40
0.22220725383760445
40
0.24073305334647102
40
0.24073305334647102
40
0.25925347006597738
40
0.25925347006597738
40
0.27776746581002787
40
0.27776746581002787
40
0.29627618840660064
40
0.29627618840660064
40
0.29627618840660064
40
0.31478491100317341
40
0.31478491100317341
40
0.33329890674722384
40
0.33329890674722384
40
0.35181932346673017
40
0.35181932346673017
40
0.37034512297559674
40
0.37034512297559674
40
0.37129784827194051
40
0.37129784827194051
40
0.37129784827194051
40
0.37129784827194051
10
-3.1081018108700618
20
0.098421564061492356
30
0
10
-3.1082289855898262
20
0.098424006267066724
30
0
10
-3.1083551615103509
20
0.098425196850393609
30
0
10
-3.1109113981719201
20
0.098425196850393609
30
0
10
-3.1137728345342932
20
0.097856260031686196
30
0
10
-3.1182646824436282
20
0.095996284586912409
30
0
10
-3.1206900632978387
20
0.094376380440160459
30
0
10
-3.124127297827358
20
0.090940312131547379
30
0
10
-3.1257475829625418
20
0.088516401977557169
30
0
10
-3.1276074140866985
20
0.084027832074338241
30
0
10
-3.128176280648868
20
0.081169123700337603
30
0
10
-3.128176280648868
20
0.078740157480314932
30
0
10
-3.128176280648868
20
0.07631119126029226
30
0
10
-3.1276074140866985
20
0.073452482886291637
30
0
10
-3.1257475829625418
20
0.068963912983072709
30
0
10
-3.124127297827358
20
0.066540002829082498
30
0
10
-3.1206900632978387
20
0.063103934520469418
30
0
10
-3.1182646824436282
20
0.061484030373717483
30
0
10
-3.1137728345342932
20
0.059624054928943702
30
0
10
-3.1109113981719201
20
0.059055118110236268
30
0
10
-3.1083551613208424
20
0.059055118110236268
30
0
10
-3.1082289854128904
20
0.059056308696960984
30
0
10
-3.1081018108700618
20
0.059058750899137563
30
0
0
SPLINE
5
169
100
AcDbEntity
8
0
100
AcDbSpline
70
0
71
3
72
26
73
22
74
0
42
0.000000001
43
0.0000000001
44
0.0000000001
40
-0.22318733222668033
40
-0.22318733222668033
40
-0.22318733222668033
40
-0.22318733222668033
40
-0.22223437358331238
40
-0.22223437358331238
40
-0.20370254433479562
40
-0.20370254433479562
40
-0.18517830144402347
40
-0.18517830144402347
40
-0.16666335294933601
40
-0.16666335294933601
40
-0.14815614165813332
40
-0.14815614165813332
40
-0.12964512363050595
40
-0.12964512363050595
40
-0.11112636427604174
40
-0.11112636427604174
40
-0.09260592810171768
40
-0.09260592810171768
40
-0.074077909655991619
40
-0.074077909655991619
40
-0.073124951012622369
40
-0.073124951012622369
40
-0.073124951012622369
40
-0.073124951012622369
10
-3.1081018108701559
20
0.059058750904033695
30
0
10
-3.1079746052228043
20
0.05905630869520432
30
0
10
-3.1078483984450447
20
0.059055118110236268
30
0
10
-3.1052913396665822
20
0.059055118110236268
30
0
10
-3.1024289526277582
20
0.05962414281744751
30
0
10
-3.0979358126684375
20
0.061484378770298588
30
0
10
-3.0955097879312254
20
0.063104403722748836
30
0
10
-3.09207184048363
20
0.066540645931976145
30
0
10
-3.0904512526723029
20
0.068964534219279658
30
0
10
-3.0885912070180805
20
0.073452935880290449
30
0
10
-3.0880222802002586
20
0.076311389594330412
30
0
10
-3.0880222802002586
20
0.081169424938008911
30
0
10
-3.0885914382863127
20
0.084028443864447536
30
0
10
-3.0904522252706093
20
0.088517620419424514
30
0
10
-3.092073437156952
20
0.090941813345073924
30
0
10
-3.0955119337602346
20
0.0943775068075587
30
0
10
-3.0979376538681462
20
0.095996908413768942
30
0
10
-3.1024300186456815
20
0.097856403335094308
30
0
10
-3.1052918397719353
20
0.098425196850393609
30
0
10
-3.1078483984450447
20
0.098425196850393609
30
0
10
-3.1079746052228043
20
0.098424006265425606
30
0
10
-3.1081018108701559
20
0.098421564056596217
30
0
0
SPLINE
5
170
100
AcDbEntity
8
0
100
AcDbSpline
70
0
71
3
72
27
73
23
74
0
42
0.000000001
43
0.0000000001
44
0.0000000001
40
0.22125452850368901
40
0.22125452850368901
40
0.22125452850368901
40
0.22125452850368901
40
0.22220725380003448
40
0.22220725380003448
40
0.24073305330890107
40
0.24073305330890107
40
0.25925347002840743
40
0.25925347002840743
40
0.27776746577245792
40
0.27776746577245792
40
0.29627618836903069
40
0.29627618836903069
40
0.29627618836903069
40
0.31478491096560346
40
0.31478491096560346
40
0.3332989067096539
40
0.3332989067096539
40
0.35181932342916022
40
0.35181932342916022
40
0.37034512293802685
40
0.37034512293802685
40
0.37129784823437056
40
0.37129784823437056
40
0.37129784823437056
40
0.37129784823437056
10
-3.1081018108700609
20
0.019681406581177393
30
0
10
-3.1082289854128904
20
0.019683848783353993
30
0
10
-3.1083551613208424
20
0.019685039370078667
30
0
10
-3.1109113981719201
20
0.019685039370078667
30
0
10
-3.1137728345342932
20
0.019116102551371233
30
0
10
-3.1182646824436282
20
0.017256127106597453
30
0
10
-3.1206900632978387
20
0.015636222959845524
30
0
10
-3.124127297827358
20
0.012200154651232439
30
0
10
-3.1257475829625418
20
0.0097762444972422317
30
0
10
-3.1276074140866985
20
0.0052876745940233019
30
0
10
-3.128176280648868
20
0.0024289662200226696
30
0
10
-3.128176280648868
20
8.1147902648788706e-32
30
0
10
-3.128176280648868
20
-0.0024289662200226696
30
0
10
-3.1276074140866985
20
-0.0052876745940233019
30
0
10
-3.1257475829625418
20
-0.0097762444972422317
30
0
10
-3.124127297827358
20
-0.012200154651232439
30
0
10
-3.1206900632978387
20
-0.015636222959845524
30
0
10
-3.1182646824436282
20
-0.017256127106597453
30
0
10
-3.1137728345342932
20
-0.019116102551371233
30
0
10
-3.1109113981719201
20
-0.019685039370078667
30
0
10
-3.1083551613208424
20
-0.019685039370078667
30
0
10
-3.1082289854128908
20
-0.019683848783353979
30
0
10
-3.1081018108700618
20
-0.019681406581177393
30
0
0
SPLINE
5
171
100
AcDbEntity
8
0
100
AcDbSpline
70
0
71
3
72
26
73
22
74
0
42
0.000000001
43
0.0000000001
44
0.0000000001
40
-0.22318733214971764
40
-0.22318733214971764
40
-0.22318733214971764
40
-0.22318733214971764
40
-0.22223437350634934
40
-0.22223437350634934
40
-0.20370254425783257
40
-0.20370254425783257
40
-0.18517830136706043
40
-0.18517830136706043
40
-0.16666335287237294
40
-0.16666335287237294
40
-0.14815614158117046
40
-0.14815614158117046
40
-0.12964893028996799
40
-0.12964893028996799
40
-0.11113398179528053
40
-0.11113398179528053
40
-0.092609738904508382
40
-0.092609738904508382
40
-0.074077909655991633
40
-0.074077909655991633
40
-0.073124951012624548
40
-0.073124951012624548
40
-0.073124951012624548
40
-0.073124951012624548
10
-3.1081018108701559
20
-0.019681406576281257
30
0
10
-3.1079746052228043
20
-0.01968384878511064
30
0
10
-3.1078483984450442
20
-0.019685039370078667
30
0
10
-3.1052913396665822
20
-0.019685039370078667
30
0
10
-3.1024289526277582
20
-0.019116014662867421
30
0
10
-3.0979358126684375
20
-0.017255778710016347
30
0
10
-3.0955097879312254
20
-0.015635753757566106
30
0
10
-3.09207184048363
20
-0.012199511548338792
30
0
10
-3.0904512526723029
20
-0.0097756232610352739
30
0
10
-3.0885912070180805
20
-0.0052872216000245074
30
0
10
-3.0880222802002586
20
-0.0024287678859845787
30
0
10
-3.0880222802002586
20
0.0024287678859845787
30
0
10
-3.0885912070180805
20
0.0052872216000245074
30
0
10
-3.0904512526723029
20
0.0097756232610352739
30
0
10
-3.09207184048363
20
0.012199511548338792
30
0
10
-3.0955097879312254
20
0.015635753757566106
30
0
10
-3.0979358126684375
20
0.017255778710016347
30
0
10
-3.1024289526277582
20
0.019116014662867421
30
0
10
-3.1052913396665822
20
0.019685039370078667
30
0
10
-3.1078483984450442
20
0.019685039370078667
30
0
10
-3.1079746052228039
20
0.01968384878511064
30
0
10
-3.108101810870155
20
0.019681406576281268
30
0
0
SPLINE
5
172
100
AcDbEntity
8
0
100
AcDbSpline
70
0
71
3
72
27
73
23
74
0
42
0.000000001
43
0.0000000001
44
0.0000000001
40
0.22129420421999679
40
0.22129420421999679
40
0.22129420421999679
40
0.22129420421999679
40
0.22220133051702745
40
0.22220133051702745
40
0.24072583534847752
40
0.24072583534847752
40
0.25924546599572951
40
0.25924546599572951
40
0.27775927853104643
40
0.27775927853104643
40
0.2962683113447499
40
0.2962683113447499
40
0.2962683113447499
40
0.31477734415845338
40
0.31477734415845338
40
0.3332911566937703
40
0.3332911566937703
40
0.35181078734102222
40
0.35181078734102222
40
0.3703352921724723
40
0.3703352921724723
40
0.37124241846950817
40
0.37124241846950817
40
0.37124241846950817
40
0.37124241846950817
10
-3.2656850524625098
20
0.019681748320766249
30
0
10
-3.2658060483368367
20
0.019683959971689709
30
0
10
-3.2659261327387696
20
0.019685039370079014
30
0
10
-3.2684762155640299
20
0.019685039370079104
30
0
10
-3.2713374476620731
20
0.01911612072284273
30
0
10
-3.275829023093217
20
0.017256200993614957
30
0
10
-3.2782542714032297
20
0.015636321280376134
30
0
10
-3.2816913613758278
20
0.012200288288295336
30
0
10
-3.2833115864762918
20
0.0097763727083458041
30
0
10
-3.2851713757141581
20
0.0052877674079972277
30
0
10
-3.2857402307574817
20
0.0024290069309322124
30
0
10
-3.2857402307574817
20
8.1147902648788706e-32
30
0
10
-3.2857402307574817
20
-0.0024290069309322124
30
0
10
-3.2851713757141581
20
-0.0052877674079972277
30
0
10
-3.2833115864762918
20
-0.0097763727083458041
30
0
10
-3.2816913613758278
20
-0.012200288288295336
30
0
10
-3.2782542714032297
20
-0.015636321280376134
30
0
10
-3.275829023093217
20
-0.017256200993614957
30
0
10
-3.2713374476620731
20
-0.01911612072284273
30
0
10
-3.2684762155640299
20
-0.019685039370079104
30
0
10
-3.2659261327387696
20
-0.019685039370079014
30
0
10
-3.2658060483368354
20
-0.019683959971689716
30
0
10
-3.2656850524625085
20
-0.019681748320766256
30
0
0
SPLINE
5
173
100
AcDbEntity
8
0
100
AcDbSpline
70
0
71
3
72
26
73
22
74
0
42
0.000000001
43
0.0000000001
44
0.0000000001
40
-0.22313321942012779
40
-0.22313321942012779
40
-0.22313321942012779
40
-0.22313321942012779
40
-0.22222589190951769
40
-0.22222589190951769
40
-0.2036959290283209
40
-0.2036959290283209
40
-0.1851728405541333
40
-0.1851728405541333
40
-0.16665816897207461
40
-0.16665816897207461
40
-0.14815050200206992
40
-0.14815050200206992
40
-0.12964283503206522
40
-0.12964283503206522
40
-0.11112816345000653
40
-0.11112816345000653
40
-0.092605074975818935
40
-0.092605074975818935
40
-0.074075112094622142
40
-0.074075112094622142
40
-0.073167784584008147
40
-0.073167784584008147
40
-0.073167784584008147
40
-0.073167784584008147
10
-3.2656850524625782
20
-0.019681748316914948
30
0
10
-3.2655640297867143
20
-0.019683959973040628
30
0
10
-3.2654439187763167
20
-0.019685039370079014
30
0
10
-3.2628930932655815
20
-0.019685039370079104
30
0
10
-3.2600310006042825
20
-0.01911604127395412
30
0
10
-3.2555382564041837
20
-0.017255885758757552
30
0
10
-3.2531124261554898
20
-0.015635896923366036
30
0
10
-3.2496746921977189
20
-0.01219970682990869
30
0
10
-3.2480541938958818
20
-0.0097758111559282258
30
0
10
-3.2461942111226607
20
-0.0052873580421386032
30
0
10
-3.2456253017588454
20
-0.0024288276863523232
30
0
10
-3.2456253017588454
20
0.0024288276863523232
30
0
10
-3.2461942111226607
20
0.0052873580421386032
30
0
10
-3.2480541938958818
20
0.0097758111559282258
30
0
10
-3.2496746921977189
20
0.01219970682990869
30
0
10
-3.2531124261554898
20
0.015635896923366036
30
0
10
-3.2555382564041837
20
0.017255885758757552
30
0
10
-3.2600310006042825
20
0.01911604127395412
30
0
10
-3.2628930932655815
20
0.019685039370079104
30
0
10
-3.2654439187763176
20
0.019685039370079014
30
0
10
-3.2655640297867157
20
0.019683959973040618
30
0
10
-3.2656850524625805
20
0.01968174831691491
30
0
0
SPLINE
5
174
100
AcDbEntity
8
0
100
AcDbSpline
70
0
71
3
72
27
73
23
74
0
42
0.000000001
43
0.0000000001
44
0.0000000001
40
0.22127481597801635
40
0.22127481597801635
40
0.22127481597801635
40
0.22127481597801635
40
0.22220418226278274
40
0.22220418226278274
40
0.24072931046115958
40
0.24072931046115958
40
0.25924931963698411
40
0.25924931963698411
40
0.27776322041231577
40
0.27776322041231577
40
0.29627210384053038
40
0.29627210384053038
40
0.29627210384053038
40
0.31478098726874498
40
0.31478098726874498
40
0.33329488804407664
40
0.33329488804407664
40
0.35181489721990117
40
0.35181489721990117
40
0.37034002541827804
40
0.37034002541827804
40
0.37126939170303919
40
0.37126939170303919
40
0.37126939170303919
40
0.37126939170303919
10
-3.1868947035713973
20
0.019681583778937514
30
0
10
-3.1870187118890287
20
0.019683906421615088
30
0
10
-3.1871417666371049
20
0.019685039370079017
30
0
10
-3.1896948499026094
20
0.019685039370079017
30
0
10
-3.1925561803505511
20
0.019116111972543971
30
0
10
-3.1970478869821997
20
0.017256165416557095
30
0
10
-3.1994731991177803
20
0.015636273936789759
30
0
10
-3.2029103587035559
20
0.012200223937506124
30
0
10
-3.2045306127163933
20
0.0097763109690548848
30
0
10
-3.2063904221274231
20
0.0052877227130966511
30
0
10
-3.2069592827187843
20
0.0024289873265373493
30
0
10
-3.2069592827187843
20
8.1147902648788706e-32
30
0
10
-3.2069592827187843
20
-0.0024289873265373493
30
0
10
-3.2063904221274231
20
-0.0052877227130966511
30
0
10
-3.2045306127163933
20
-0.0097763109690548848
30
0
10
-3.2029103587035559
20
-0.012200223937506124
30
0
10
-3.1994731991177803
20
-0.015636273936789759
30
0
10
-3.1970478869821997
20
-0.017256165416557095
30
0
10
-3.1925561803505511
20
-0.019116111972543971
30
0
10
-3.1896948499026094
20
-0.019685039370079017
30
0
10
-3.1871417666371054
20
-0.019685039370079017
30
0
10
-3.1870187118890296
20
-0.01968390642161506
30
0
10
-3.1868947035713986
20
-0.019681583778937514
30
0
0
SPLINE
5
175
100
AcDbEntity
8
0
100
AcDbSpline
70
0
71
3
72
26
73
22
74
0
42
0.000000001
43
0.0000000001
44
0.0000000001
40
-0.22315955804035223
40
-0.22315955804035223
40
-0.22315955804035223
40
-0.22315955804035223
40
-0.22222997526828553
40
-0.22222997526828553
40
-0.20369911385541017
40
-0.20369911385541017
40
-0.18517546966923992
40
-0.18517546966923992
40
-0.16666066481075364
40
-0.16666066481075364
40
-0.14815321719836977
40
-0.14815321719836977
40
-0.12964576958598589
40
-0.12964576958598589
40
-0.11113096472749961
40
-0.11113096472749961
40
-0.092607320541329349
40
-0.092607320541329349
40
-0.074076459128453981
40
-0.074076459128453981
40
-0.073146876356387294
40
-0.073146876356387294
40
-0.073146876356387294
40
-0.073146876356387294
10
-3.1868947035714799
20
-0.019681583774601285
30
0
10
-3.1867706664075262
20
-0.019683906423152975
30
0
10
-3.1866475830257528
20
-0.019685039370079017
30
0
10
-3.1840937189594869
20
-0.019685039370079017
30
0
10
-3.1812314845747447
20
-0.019116028463546472
30
0
10
-3.1767385498517622
20
-0.017255834222740858
30
0
10
-3.1743126259798311
20
-0.015635828001685167
30
0
10
-3.1708747892560196
20
-0.012199612821186217
30
0
10
-3.1692542478700161
20
-0.0097757207045749122
30
0
10
-3.1673942348310762
20
-0.0052872923611214174
30
0
10
-3.1668253170667899
20
-0.002428798899262976
30
0
10
-3.1668253170667899
20
0.002428798899262976
30
0
10
-3.1673942348310762
20
0.0052872923611214174
30
0
10
-3.1692542478700161
20
0.0097757207045749122
30
0
10
-3.1708747892560196
20
0.012199612821186217
30
0
10
-3.1743126259798311
20
0.015635828001685167
30
0
10
-3.1767385498517622
20
0.017255834222740858
30
0
10
-3.1812314845747447
20
0.019116028463546472
30
0
10
-3.1840937189594869
20
0.019685039370079017
30
0
10
-3.1866475830257528
20
0.019685039370079017
30
0
10
-3.1867706664075257
20
0.019683906423152979
30
0
10
-3.1868947035714781
20
0.019681583774601313
30
0
0
SPLINE
5
176
100
AcDbEntity
8
0
100
AcDbSpline
70
0
71
3
72
27
73
23
74
0
42
0.000000001
43
0.0000000001
44
0.0000000001
40
0.22131275134095391
40
0.22131275134095391
40
0.22131275134095391
40
0.22131275134095391
40
0.22219867807649324
40
0.22219867807649324
40
0.24072033193401965
40
0.24072033193401965
40
0.25923734075399779
40
0.25923734075399779
40
0.2777533422545912
40
0.2777533422545912
40
0.29626478371128173
40
0.29626478371128173
40
0.29626478371128173
40
0.31477395552541287
40
0.31477395552541287
40
0.33328768592835478
40
0.33328768592835478
40
0.35180696437119485
40
0.35180696437119485
40
0.37033088931911895
40
0.37033088931911895
40
0.37121681605494655
40
0.37121681605494655
40
0.37121681605494655
40
0.37121681605494655
10
-3.3444730373205376
20
0.098422058864156808
30
0
10
-3.3445911635982037
20
0.098424167291724665
30
0
10
-3.3447084177861122
20
0.098425196850393956
30
0
10
-3.3472553443731288
20
0.098425196850393956
30
0
10
-3.3501161477314394
20
0.097856424164164374
30
0
10
-3.3546071390624403
20
0.095996971148189808
30
0
10
-3.3570321464014734
20
0.094377474040953688
30
0
10
-3.3604694988949961
20
0.090941784025453762
30
0
10
-3.3620900690032172
20
0.088517684428430193
30
0
10
-3.3639502813264697
20
0.084028601331189362
30
0
10
-3.3645192690517205
20
0.081169480506127337
30
0
10
-3.3645192690517205
20
0.078740157480314932
30
0
10
-3.3645192690517205
20
0.076311132307856785
30
0
10
-3.3639504191726597
20
0.073452348484193367
30
0
10
-3.3620906487102733
20
0.068963727326314367
30
0
10
-3.3604704505166363
20
0.066539809318767781
30
0
10
-3.3570334253205569
20
0.063103792152391272
30
0
10
-3.3546082363969036
20
0.061483923388602729
30
0
10
-3.3501167830254097
20
0.059624028615819294
30
0
10
-3.3472556424164881
20
0.059055118110235921
30
0
10
-3.3447084177860744
20
0.059055118110235921
30
0
10
-3.3445911635981265
20
0.059056147668903852
30
0
10
-3.3444730373204217
20
0.059058256096473111
30
0
0
SPLINE
5
177
100
AcDbEntity
8
0
100
AcDbSpline
70
0
71
3
72
26
73
22
74
0
42
0.000000001
43
0.0000000001
44
0.0000000001
40
-0.22310820819840457
40
-0.22310820819840457
40
-0.22310820819840457
40
-0.22310820819840457
40
-0.22222209411891056
40
-0.22222209411891056
40
-0.2036929669301564
40
-0.2036929669301564
40
-0.18517039519661738
40
-0.18517039519661738
40
-0.16665584750430473
40
-0.16665584750430473
40
-0.14814797655432924
40
-0.14814797655432924
40
-0.12964010560435396
40
-0.12964010560435396
40
-0.11112555791204132
40
-0.11112555791204132
40
-0.092602986178502517
40
-0.092602986178502517
40
-0.074073858989748304
40
-0.074073858989748304
40
-0.073187746443894308
40
-0.073187746443894308
40
-0.073187746443894308
40
-0.073187746443894308
10
-3.3444730373204825
20
0.0590582560999032
30
0
10
-3.3443548860972339
20
0.059056147667713381
30
0
10
-3.3442376071394602
20
0.059055118110235921
30
0
10
-3.3416896752144933
20
0.059055118110235921
30
0
10
-3.3388277143655758
20
0.059624104293675262
30
0
10
-3.3343351473489271
20
0.061484223791189577
30
0
10
-3.3319094041587087
20
0.063104196460735007
30
0
10
-3.3284717657541658
20
0.066540363227170204
30
0
10
-3.326851307508508
20
0.0689642622117497
30
0
10
-3.3249913528718724
20
0.07345273836223852
30
0
10
-3.3244224513168095
20
0.07631130302493766
30
0
10
-3.3244224513168095
20
0.081169011935692356
30
0
10
-3.3249913528718724
20
0.084027576598391468
30
0
10
-3.326851307508508
20
0.088516052748880261
30
0
10
-3.3284717657541658
20
0.090939951733459756
30
0
10
-3.3319094041587087
20
0.09437611849989494
30
0
10
-3.3343351473489271
20
0.095996091169440204
30
0
10
-3.3388277143655758
20
0.097856210666954532
30
0
10
-3.3416896752144933
20
0.098425196850393956
30
0
10
-3.3442376069381945
20
0.098425196850393956
30
0
10
-3.3443548859083689
20
0.098424167296287571
30
0
10
-3.3444730373205993
20
0.098422058860724623
30
0
0
SPLINE
5
178
100
AcDbEntity
8
0
100
AcDbSpline
70
0
71
3
72
27
73
23
74
0
42
0.000000001
43
0.0000000001
44
0.0000000001
40
0.22127481597840376
40
0.22127481597840376
40
0.22127481597840376
40
0.22127481597840376
40
0.22220418226278266
40
0.22220418226278266
40
0.24072680998478493
40
0.24072680998478493
40
0.25924432046347745
40
0.25924432046347745
40
0.27776072172359595
40
0.27776072172359595
40
0.29627210387318653
40
0.29627210387318653
40
0.29627210387318653
40
0.31478098730140114
40
0.31478098730140114
40
0.3332948880767328
40
0.3332948880767328
40
0.35181489725255732
40
0.35181489725255732
40
0.37034002545093414
40
0.37034002545093414
40
0.37126939173570056
40
0.37126939173570056
40
0.37126939173570056
40
0.37126939173570056
10
-3.1868947035715522
20
0.098421741259252474
30
0
10
-3.1870187118891318
20
0.098424063901928094
30
0
10
-3.187141766637156
20
0.098425196850393956
30
0
10
-3.1896945217561035
20
0.098425196850393956
30
0
10
-3.1925554808883363
20
0.097856421185888304
30
0
10
-3.1970466788230949
20
0.095996960983808124
30
0
10
-3.199471791040394
20
0.094377478671266307
30
0
10
-3.202909310978074
20
0.090941788846197191
30
0
10
-3.2045299744708671
20
0.088517675953530869
30
0
10
-3.2063902703618745
20
0.084028579123231958
30
0
10
-3.2069592827187843
20
0.081169472723043354
30
0
10
-3.2069592827187843
20
0.078740157480314932
30
0
10
-3.2069592827187843
20
0.076311170153777586
30
0
10
-3.2063904221274231
20
0.073452434767218286
30
0
10
-3.2045306127163933
20
0.068963846511260057
30
0
10
-3.2029103587035559
20
0.066539933542808807
30
0
10
-3.1994731991177803
20
0.063103883543525183
30
0
10
-3.1970478869821997
20
0.06148399206375784
30
0
10
-3.1925561803505511
20
0.059624045507770965
30
0
10
-3.1896948499026094
20
0.059055118110235921
30
0
10
-3.1871417666371049
20
0.059055118110235921
30
0
10
-3.1870187118890287
20
0.059056251058699868
30
0
10
-3.1868947035713973
20
0.059058573701377445
30
0
0
SPLINE
5
179
100
AcDbEntity
8
0
100
AcDbSpline
70
0
71
3
72
26
73
22
74
0
42
0.000000001
43
0.0000000001
44
0.0000000001
40
-0.22315955810724675
40
-0.22315955810724675
40
-0.22315955810724675
40
-0.22315955810724675
40
-0.2222299753351806
40
-0.2222299753351806
40
-0.20369911392230522
40
-0.20369911392230522
40
-0.18517546973613483
40
-0.18517546973613483
40
-0.16666066487764855
40
-0.16666066487764855
40
-0.14815321726526468
40
-0.14815321726526468
40
-0.12964576965288102
40
-0.12964576965288102
40
-0.11113096479439473
40
-0.11113096479439473
40
-0.092607320608224464
40
-0.092607320608224464
40
-0.074076459195349095
40
-0.074076459195349095
40
-0.073146878274304883
40
-0.073146878274304883
40
-0.073146878274304883
40
-0.073146878274304883
10
-3.1868947035714781
20
0.059058573705713636
30
0
10
-3.1867706664075257
20
0.059056251057161981
30
0
10
-3.1866475830257524
20
0.059055118110235921
30
0
10
-3.1840937189594869
20
0.059055118110235921
30
0
10
-3.1812314845747447
20
0.059624129016768466
30
0
10
-3.1767385498517622
20
0.061484323257574088
30
0
10
-3.1743126259798311
20
0.063104329478629845
30
0
10
-3.1708747892560196
20
0.066540544659128814
30
0
10
-3.1692542478700161
20
0.068964436775740115
30
0
10
-3.1673942348310762
20
0.073452865119193606
30
0
10
-3.1668253170667899
20
0.076311358581052049
30
0
10
-3.1668253170667899
20
0.081168956379577981
30
0
10
-3.1673942348310762
20
0.084027449841436383
30
0
10
-3.1692542478700161
20
0.088515878184889846
30
0
10
-3.1708747892560196
20
0.090939770301501147
30
0
10
-3.1743126259798311
20
0.094375985482000102
30
0
10
-3.1767385498517622
20
0.095995991703055783
30
0
10
-3.1812314845747447
20
0.097856185943861404
30
0
10
-3.1840937189594869
20
0.098425196850393956
30
0
10
-3.186647582782836
20
0.098425196850393956
30
0
10
-3.186770666180359
20
0.098424063907722709
30
0
10
-3.1868947035716335
20
0.098421741254913375
30
0
0
SPLINE
5
180
100
AcDbEntity
8
0
100
AcDbSpline
70
0
71
3
72
27
73
23
74
0
42
0.000000001
43
0.0000000001
44
0.0000000001
40
0.22129420422033219
40
0.22129420422033219
40
0.22129420422033219
40
0.22129420422033219
40
0.22220133051702756
40
0.22220133051702756
40
0.24072345370348591
40
0.24072345370348591
40
0.25924070431976015
40
0.25924070431976015
40
0.27775689850788055
40
0.27775689850788055
40
0.2962683113743837
40
0.2962683113743837
40
0.2962683113743837
40
0.31477734418808734
40
0.31477734418808734
40
0.33329115672340409
40
0.33329115672340409
40
0.35181078737065608
40
0.35181078737065608
40
0.37033529220210615
40
0.37033529220210615
40
0.37124241849913681
40
0.37124241849913681
40
0.37124241849913681
40
0.37124241849913681
10
-3.265685052462644
20
0.098421905801081219
30
0
10
-3.2658060483369256
20
0.09842411745200301
30
0
10
-3.2659261327388145
20
0.098425196850393956
30
0
10
-3.2684759030121935
20
0.098425196850394039
30
0
10
-3.271336781441696
20
0.097856422728478096
30
0
10
-3.2758278723456336
20
0.09599696625051525
30
0
10
-3.2782529302347982
20
0.094377476273060576
30
0
10
-3.2816903634358074
20
0.090941786348197481
30
0
10
-3.2833109785557957
20
0.088517680342038663
30
0
10
-3.2851712311593313
20
0.084028590625682603
30
0
10
-3.2857402307574817
20
0.081169476754134245
30
0
10
-3.2857402307574817
20
0.078740157480314932
30
0
10
-3.2857402307574817
20
0.0763111505493827
30
0
10
-3.2851713757141581
20
0.07345239007231763
30
0
10
-3.2833115864762918
20
0.068963784771969072
30
0
10
-3.2816913613758278
20
0.066539869192019582
30
0
10
-3.2782542714032297
20
0.063103836199938812
30
0
10
-3.275829023093217
20
0.061483956486699978
30
0
10
-3.2713374476620731
20
0.059624036757472208
30
0
10
-3.2684762155640299
20
0.059055118110235831
30
0
10
-3.2659261327387696
20
0.059055118110235921
30
0
10
-3.2658060483368359
20
0.059056197508625265
30
0
10
-3.2656850524625098
20
0.0590584091595487
30
0
0
SPLINE
5
181
100
AcDbEntity
8
0
100
AcDbSpline
70
0
71
3
72
26
73
22
74
0
42
0.000000001
43
0.0000000001
44
0.0000000001
40
-0.22313321948083092
40
-0.22313321948083092
40
-0.22313321948083092
40
-0.22313321948083092
40
-0.2222258919702173
40
-0.2222258919702173
40
-0.20369592908902048
40
-0.20369592908902048
40
-0.185172840614833
40
-0.185172840614833
40
-0.16665816903277431
40
-0.16665816903277431
40
-0.14815050206276939
40
-0.14815050206276939
40
-0.12964283509276489
40
-0.12964283509276489
40
-0.1111281635107062
40
-0.1111281635107062
40
-0.092605075036518589
40
-0.092605075036518589
40
-0.074075112155321796
40
-0.074075112155321796
40
-0.073167786327720932
40
-0.073167786327720932
40
-0.073167786327720932
40
-0.073167786327720932
10
-3.2656850524625796
20
0.059058409163400029
30
0
10
-3.2655640297867157
20
0.059056197507274338
30
0
10
-3.2654439187763176
20
0.059055118110235921
30
0
10
-3.2628930932655815
20
0.059055118110235831
30
0
10
-3.2600310006042825
20
0.059624116206360898
30
0
10
-3.2555382564041837
20
0.061484271721557467
30
0
10
-3.2531124261554898
20
0.063104260556948913
30
0
10
-3.2496746921977189
20
0.066540450650406258
30
0
10
-3.2480541938958818
20
0.068964346324386722
30
0
10
-3.2461942111226607
20
0.073452799438176355
30
0
10
-3.2456253017588454
20
0.076311329793962671
30
0
10
-3.2456253017588454
20
0.081168985166667318
30
0
10
-3.2461942111226607
20
0.084027515522453564
30
0
10
-3.2480541938958818
20
0.08851596863624317
30
0
10
-3.2496746921977189
20
0.09093986431022362
30
0
10
-3.2531124261554898
20
0.094376054403680978
30
0
10
-3.2555382564041837
20
0.095996043239072487
30
0
10
-3.2600310006042825
20
0.097856198754269055
30
0
10
-3.2628930932655815
20
0.098425196850394039
30
0
10
-3.2654439185554498
20
0.098425196850393956
30
0
10
-3.265564029579803
20
0.09842411745713768
30
0
10
-3.2656850524627146
20
0.098421905797227413
30
0
0
SPLINE
5
182
100
AcDbEntity
8
0
100
AcDbSpline
70
0
71
3
72
27
73
23
74
0
42
0.000000001
43
0.0000000001
44
0.0000000001
40
0.22131275134066566
40
0.22131275134066566
40
0.22131275134066566
40
0.22131275134066566
40
0.22219867807649324
40
0.22219867807649324
40
0.24072260302441736
40
0.24072260302441736
40
0.25924188146725746
40
0.25924188146725746
40
0.27775561187019937
40
0.27775561187019937
40
0.29626478368433051
40
0.29626478368433051
40
0.29626478368433051
40
0.31477395549846166
40
0.31477395549846166
40
0.33328768590140351
40
0.33328768590140351
40
0.35180696434424363
40
0.35180696434424363
40
0.37033088929216773
40
0.37033088929216773
40
0.37121681602799861
40
0.37121681602799861
40
0.37121681602799861
40
0.37121681602799861
10
-3.3444730373204217
20
0.019681901383841852
30
0
10
-3.3445911635981265
20
0.019684009811411107
30
0
10
-3.3447084177860744
20
0.019685039370079017
30
0
10
-3.3472556424164881
20
0.019685039370079017
30
0
10
-3.3501167830254097
20
0.019116128864495638
30
0
10
-3.3546082363969036
20
0.017256234091712203
30
0
10
-3.3570334253205569
20
0.015636365327923656
30
0
10
-3.3604704505166363
20
0.012200348161547161
30
0
10
-3.3620906487102733
20
0.0097764301540005719
30
0
10
-3.3639504191726597
20
0.005287808996121573
30
0
10
-3.3645192690517205
20
0.0024290251724581519
30
0
10
-3.3645192690517205
20
8.1147902648788706e-32
30
0
10
-3.3645192690517205
20
-0.0024290251724581519
30
0
10
-3.3639504191726597
20
-0.005287808996121573
30
0
10
-3.3620906487102733
20
-0.0097764301540005719
30
0
10
-3.3604704505166363
20
-0.012200348161547161
30
0
10
-3.3570334253205569
20
-0.015636365327923656
30
0
10
-3.3546082363969036
20
-0.017256234091712203
30
0
10
-3.3501167830254097
20
-0.019116128864495638
30
0
10
-3.3472556424164881
20
-0.019685039370079017
30
0
10
-3.3447084177860744
20
-0.019685039370079017
30
0
10
-3.3445911635981265
20
-0.019684009811411111
30
0
10
-3.3444730373204217
20
-0.019681901383841852
30
0
0
SPLINE
5
183
100
AcDbEntity
8
0
100
AcDbSpline
70
0
71
3
72
26
73
22
74
0
42
0.000000001
43
0.0000000001
44
0.0000000001
40
-0.22310820814320001
40
-0.22310820814320001
40
-0.22310820814320001
40
-0.22310820814320001
40
-0.22222209406370519
40
-0.22222209406370519
40
-0.20369296687495103
40
-0.20369296687495103
40
-0.18517039514141201
40
-0.18517039514141201
40
-0.16665584744909956
40
-0.16665584744909956
40
-0.14814797649912406
40
-0.14814797649912406
40
-0.12964010554914857
40
-0.12964010554914857
40
-0.11112555785683612
40
-0.11112555785683612
40
-0.092602986123297093
40
-0.092602986123297093
40
-0.074073858934542935
40
-0.074073858934542935
40
-0.073187744855048725
40
-0.073187744855048725
40
-0.073187744855048725
40
-0.073187744855048725
10
-3.344473037320483
20
-0.019681901380411745
30
0
10
-3.3443548860972347
20
-0.019684009812601568
30
0
10
-3.3442376071394602
20
-0.019685039370079017
30
0
10
-3.3416896752144933
20
-0.019685039370079017
30
0
10
-3.3388277143655758
20
-0.019116053186639677
30
0
10
-3.3343351473489271
20
-0.017255933689125352
30
0
10
-3.3319094041587087
20
-0.015635961019579939
30
0
10
-3.3284717657541658
20
-0.012199794253144746
30
0
10
-3.326851307508508
20
-0.009775895268565293
30
0
10
-3.3249913528718724
20
-0.0052874191180765058
30
0
10
-3.3244224513168095
20
-0.0024288544553773611
30
0
10
-3.3244224513168095
20
0.0024288544553773611
30
0
10
-3.3249913528718724
20
0.0052874191180765058
30
0
10
-3.326851307508508
20
0.009775895268565293
30
0
10
-3.3284717657541658
20
0.012199794253144746
30
0
10
-3.3319094041587087
20
0.015635961019579939
30
0
10
-3.3343351473489271
20
0.017255933689125352
30
0
10
-3.3388277143655758
20
0.019116053186639677
30
0
10
-3.3416896752144933
20
0.019685039370079017
30
0
10
-3.3442376071394602
20
0.019685039370079017
30
0
10
-3.3443548860972347
20
0.019684009812601568
30
0
10
-3.344473037320483
20
0.019681901380411745
30
0
0
ENDSEC
0
SECTION
2
OBJECTS
0
DICTIONARY
5
C
100
AcDbDictionary
3
ACAD_GROUP
350
D
3
ACAD_MLINESTYLE
350
17
0
DICTIONARY
5
D
100
AcDbDictionary
0
DICTIONARY
5
1A
330
C
100
AcDbDictionary
0
DICTIONARY
5
17
100
AcDbDictionary
0
ENDSEC
0
EOF
