0
SECTION
2
HEADER
9
$INSUNITS
70
1
9
$ACADVER
1
AC1014
9
$HANDSEED
5
FFFF
0
ENDSEC
0
SECTION
2
TABLES
0
TABLE
2
VPORT
5
8
100
AcDbSymbolTable
0
ENDTAB
0
TABLE
2
LTYPE
5
5
100
AcDbSymbolTable
0
LTYPE
5
14
100
AcDbSymbolTableRecord
100
AcDbLinetypeTableRecord
2
BYBLOCK
70
0
0
LTYPE
5
15
100
AcDbSymbolTableRecord
100
AcDbLinetypeTableRecord
2
BYLAYER
70
0
0
ENDTAB
0
TABLE
2
LAYER
5
2
100
AcDbSymbolTable
70
2
0
LAYER
5
50
100
AcDbSymbolTableRecord
100
AcDbLayerTableRecord
2
0
70
0
6
CONTINUOUS
0
ENDTAB
0
TABLE
2
STYLE
5
3
100
AcDbSymbolTable
70
1
0
STYLE
5
11
100
AcDbSymbolTableRecord
100
AcDbTextStyleTableRecord
2
STANDARD
70
0
0
ENDTAB
0
TABLE
2
VIEW
5
6
100
AcDbSymbolTable
70
0
0
ENDTAB
0
TABLE
2
UCS
5
7
100
AcDbSymbolTable
70
0
0
ENDTAB
0
TABLE
2
APPID
5
9
100
AcDbSymbolTable
70
2
0
APPID
5
12
100
AcDbSymbolTableRecord
100
AcDbRegAppTableRecord
2
ACAD
70
0
0
ENDTAB
0
TABLE
2
DIMSTYLE
5
A
100
AcDbSymbolTable
70
1
0
ENDTAB
0
TABLE
2
BLOCK_RECORD
5
1
100
AcDbSymbolTable
70
1
0
BLOCK_RECORD
5
1F
100
AcDbSymbolTableRecord
100
AcDbBlockTableRecord
2
*MODEL_SPACE
0
BLOCK_RECORD
5
1B
100
AcDbSymbolTableRecord
100
AcDbBlockTableRecord
2
*PAPER_SPACE
0
ENDTAB
0
ENDSEC
0
SECTION
2
BLOCKS
0
BLOCK
5
20
100
AcDbEntity
100
AcDbBlockBegin
2
*MODEL_SPACE
0
ENDBLK
5
21
100
AcDbEntity
100
AcDbBlockEnd
0
BLOCK
5
1C
100
AcDbEntity
100
AcDbBlockBegin
2
*PAPER_SPACE
0
ENDBLK
5
1D
100
AcDbEntity
100
AcDbBlockEnd
0
ENDSEC
0
SECTION
2
ENTITIES
0
LINE
5
100
100
AcDbEntity
8
0
100
AcDbLine
10
-3.5815625000000408
20
0.63435352527494071
30
2.1854783949314103e-17
11
-3.4282842712474659
21
0.63435352527493827
31
2.1854783949314103e-17
0
ARC
5
101
100
AcDbEntity
8
0
100
AcDbCircle
10
-3.399999999999995
20
0.62435352527493881
30
2.1854783949314103e-17
40
0.029999999999999249
210
4.0439473897950189e-32
220
8.5616726866662697e-31
230
1
100
AcDbArc
50
-160.52877936552289
51
160.52877936551602
0
LINE
5
102
100
AcDbEntity
8
0
100
AcDbLine
10
-3.4282842712474588
20
0.61435352527494569
30
2.1854783949314113e-17
11
-3.5815625000000337
21
0.61435352527494069
31
2.1854783949314103e-17
0
LINE
5
103
100
AcDbEntity
8
0
100
AcDbLine
10
-3.5815625000000337
20
0.61435352527494069
30
2.1854783949314103e-17
11
-3.5815625000000124
21
0.55859742474564023
31
2.1854783949314146e-17
0
ARC
5
104
100
AcDbEntity
8
0
100
AcDbCircle
10
-3.5665625000000114
20
0.55859742474564633
30
-3.2782175923971159e-16
40
0.015000000000000707
210
2.331176954593397e-14
220
-4.3898462015210358e-17
230
1
100
AcDbArc
50
180
51
307.73925345774887
0
ARC
5
105
100
AcDbEntity
8
0
100
AcDbCircle
10
-3.4999999999999956
20
0.47259744745641707
30
2.1854783949314103e-17
40
0.093750000000000167
210
-1.6430054805443179e-33
220
7.8673811184617059e-31
230
1
100
AcDbArc
50
-127.73925345775018
51
127.73925345775065
0
ARC
5
106
100
AcDbEntity
8
0
100
AcDbCircle
10
-3.566562500000011
20
0.3865974701671876
30
2.1854783949314103e-17
40
0.01499999999999981
210
-2.6611302285286812e-30
220
-2.849496411300054e-30
230
1
100
AcDbArc
50
52.260746542250217
51
180
0
LINE
5
107
100
AcDbEntity
8
0
100
AcDbLine
10
-3.5815625000000106
20
0.38659747016718438
30
2.1854783949314103e-17
11
-3.581562499999952
21
0.094999999999993895
31
2.1854783949314331e-17
0
LINE
5
108
100
AcDbEntity
8
0
100
AcDbLine
10
-3.581562499999952
20
0.094999999999993895
30
2.1854783949314331e-17
11
-3.4777436023621582
21
0.094999999999999862
31
2.1854783949314103e-17
0
ARC
5
109
100
AcDbEntity
8
0
100
AcDbCircle
10
-3.4728223425196383
20
0.094999999999999835
30
2.1854783949314103e-17
40
0.0049212598425194048
210
-4.7926425696885665e-47
220
0
230
1
100
AcDbArc
50
-90
51
180
0
LINE
5
110
100
AcDbEntity
8
0
100
AcDbLine
10
-3.4728223425196383
20
0.090078740157480422
30
2.1854783949314103e-17
11
-3.4728223425196383
21
-0.12500000000000028
31
-6.7749830242873724e-16
0
LINE
5
111
100
AcDbEntity
8
0
100
AcDbLine
10
-3.4728223425196383
20
-0.12500000000000028
30
-6.7749830242873724e-16
11
-2.7771776574800868
21
-0.12500000000000031
31
-6.7749830242873724e-16
0
LINE
5
112
100
AcDbEntity
8
0
100
AcDbLine
10
-2.7771776574800868
20
-0.12500000000000031
30
-6.7749830242873724e-16
11
-2.7771776574800864
21
0.090078740157480089
31
2.1854783949314103e-17
0
ARC
5
113
100
AcDbEntity
8
0
100
AcDbCircle
10
-2.7771776574800864
20
0.094999999999999807
30
2.1854783949314103e-17
40
0.0049212598425197544
210
-1.1102230246251565e-16
220
-3.5872295676866151e-31
230
1
100
AcDbArc
50
0
51
270
0
LINE
5
114
100
AcDbEntity
8
0
100
AcDbLine
10
-2.7722563976375669
20
0.094999999999999835
30
2.2401153548046964e-17
11
-2.6684374999997718
21
0.095000000000061924
31
2.1854783949314103e-17
0
LINE
5
115
100
AcDbEntity
8
0
100
AcDbLine
10
-2.6684374999997718
20
0.095000000000061924
30
2.1854783949314103e-17
11
-2.6684374999999783
21
0.1945640616916485
31
2.1854783949314026e-17
0
ARC
5
116
100
AcDbEntity
8
0
100
AcDbCircle
10
-2.6834374999999779
20
0.1945640616916175
30
-3.2782175923971154e-16
40
0.014999999999999658
210
-2.331176954593557e-14
220
-4.8162245868528973e-26
230
1
100
AcDbArc
50
0
51
127.62645978112609
0
ARC
5
117
100
AcDbEntity
8
0
100
AcDbCircle
10
-2.750000000000008
20
0.28091470818059033
30
2.1854783949314103e-17
40
0.094027522008516523
210
-6.1727770653987438e-33
220
7.982739063130362e-31
230
1
100
AcDbArc
50
303.2557173072247
51
307.62645978112658
0
LINE
5
118
100
AcDbEntity
8
0
100
AcDbLine
10
-2.698437499999994
20
0.20228593807186604
30
2.1854783949314165e-17
11
-2.6984374999999945
21
0.20261802182826782
31
2.1854783949314103e-17
0
ARC
5
119
100
AcDbEntity
8
0
100
AcDbCircle
10
-2.750000000000008
20
0.28091470818059033
30
2.1854783949314103e-17
40
0.09375
210
1.0257178600214486e-15
220
1.5575332765481589e-15
230
1
100
AcDbArc
50
56.63298703075705
51
303.36701296923013
0
LINE
5
120
100
AcDbEntity
8
0
100
AcDbLine
10
-2.6984374999999927
20
0.35921139453287737
30
-1.5298348764519878e-16
11
-2.6984374999999927
21
0.35954347828931371
31
3.7153132713833977e-16
0
ARC
5
121
100
AcDbEntity
8
0
100
AcDbCircle
10
-2.750000000000008
20
0.28091470818059033
30
2.1854783949314103e-17
40
0.09402752200851644
210
-3.3376543190173707e-33
220
7.8453101063766764e-31
230
1
100
AcDbArc
50
52.373540218883164
51
56.744282692774306
0
ARC
5
122
100
AcDbEntity
8
0
100
AcDbCircle
10
-2.6834374999999921
20
0.36726535466957444
30
3.7153132713833977e-16
40
0.015000000000000284
210
-1.423209141890293e-14
220
-1.8463103022156207e-14
230
1
100
AcDbArc
50
232.373540218882
51
360
0
LINE
5
123
100
AcDbEntity
8
0
100
AcDbLine
10
-2.668437499999992
20
0.36726535466957405
30
3.7153132713833977e-16
11
-2.6684374999999934
21
0.42267078599909425
31
3.7153132713833967e-16
0
LINE
5
124
100
AcDbEntity
8
0
100
AcDbLine
10
-2.6684374999999934
20
0.42267078599909425
30
3.7153132713833967e-16
11
-2.8217157287525372
21
0.4226707859990968
31
-1.5298348764519871e-16
0
ARC
5
125
100
AcDbEntity
8
0
100
AcDbCircle
10
-2.8500000000000076
20
0.4326707859990942
30
2.1854783949314103e-17
40
0.030000000000000249
210
2.1895288505075263e-46
220
9.7054737354994422e-31
230
1
100
AcDbArc
50
19.471220634480808
51
340.52877936551943
0
LINE
5
126
100
AcDbEntity
8
0
100
AcDbLine
10
-2.8217157287525438
20
0.44267078599908938
30
2.1854783949314094e-17
11
-2.6684374999999934
21
0.44267078599909432
31
-1.5298348764519871e-16
0
LINE
5
127
100
AcDbEntity
8
0
100
AcDbLine
10
-2.6684374999999934
20
0.44267078599909432
30
-1.5298348764519871e-16
11
-2.6684374999999947
21
0.49842688652836792
31
-1.5298348764519876e-16
0
ARC
5
128
100
AcDbEntity
8
0
100
AcDbCircle
10
-2.6834374999999944
20
0.49842688652836775
30
1.9669305554382694e-16
40
0.014999999999999658
210
2.3311769545935576e-14
220
2.7171929968140468e-28
230
1
100
AcDbArc
50
0
51
127.7392534577494
0
ARC
5
129
100
AcDbEntity
8
0
100
AcDbCircle
10
-2.750000000000008
20
0.58442686381759823
30
2.1854783949314103e-17
40
0.093749999999999944
210
-1.6430054806010701e-33
220
7.8673811184609641e-31
230
1
100
AcDbArc
50
52.260746542261302
51
307.73925345774899
0
ARC
5
130
100
AcDbEntity
8
0
100
AcDbCircle
10
-2.6834375000000099
20
0.67042684110684103
30
-3.2782175923971154e-16
40
0.015000000000000008
210
1.4268410670356012e-14
220
1.8435049669172423e-14
230
1
100
AcDbArc
50
232.26074654226198
51
360
0
LINE
5
131
100
AcDbEntity
8
0
100
AcDbLine
10
-2.6684375000000098
20
0.67042684110683926
30
-3.2782175923971154e-16
11
-2.6684375000000036
21
0.7255186978474566
31
2.185478394931406e-17
0
LINE
5
132
100
AcDbEntity
8
0
100
AcDbLine
10
-2.6684375000000036
20
0.7255186978474566
30
2.185478394931406e-17
11
-2.8226724935067469
21
0.72551869784747591
31
2.1854783949314103e-17
0
ARC
5
133
100
AcDbEntity
8
0
100
AcDbCircle
10
-2.8509567647542169
20
0.73551869784747737
30
2.1854783949314103e-17
40
0.029999999999999902
210
1.3255407660972564e-43
220
9.7054737354996016e-31
230
1
100
AcDbArc
50
19.471220634472662
51
340.52877936551187
0
LINE
5
134
100
AcDbEntity
8
0
100
AcDbLine
10
-2.8226724935067518
20
0.74551869784746849
30
2.1854783949314094e-17
11
-2.6684375000000018
21
0.74551869784745672
31
2.1854783949314103e-17
0
LINE
5
135
100
AcDbEntity
8
0
100
AcDbLine
10
-2.6684375000000018
20
0.74551869784745672
30
2.1854783949314103e-17
11
-2.6684374999999947
21
0.81257946530384917
31
-1.5298348764519878e-16
0
ARC
5
136
100
AcDbEntity
8
0
100
AcDbCircle
10
-2.6814213794284196
20
0.8050681947703312
30
-3.2782175923971154e-16
40
0.015000010334648988
210
-1.0089226265768697e-14
220
-5.8366922131266725e-15
230
1
100
AcDbArc
50
30.049699792226843
51
130.40906629625238
0
ARC
5
137
100
AcDbEntity
8
0
100
AcDbCircle
10
-2.7519175225230965
20
0.88787433167318874
30
2.1854783949314103e-17
40
0.093750000000000069
210
-1.3053248834432556e-33
220
7.8632059559321761e-31
230
1
100
AcDbArc
50
62.803870624532429
51
310.40906629625118
0
ARC
5
138
100
AcDbEntity
8
0
100
AcDbCircle
10
-2.7022146572745287
20
0.98460172017346159
30
-1.5298348764519874e-16
40
0.01499999999999988
210
5.3271804158496125e-15
220
1.0367294664360929e-14
230
1
100
AcDbArc
50
242.80387062453184
51
346.24124500763281
0
ARC
5
139
100
AcDbEntity
8
0
100
AcDbCircle
10
-3.1250000000000222
20
0.84999999999999565
30
1.9669305554382694e-16
40
0.45656247848428155
210
7.3366886831354866e-16
220
2.1981166988055281e-16
230
1
100
AcDbArc
50
16.678536773243351
51
27.728237193675085
0
LINE
5
140
100
AcDbEntity
8
0
100
AcDbLine
10
-2.7208671152913819
20
1.0624286419090843
30
1.9669305554382674e-16
11
-2.881349456555212
21
0.97353305387733047
31
2.1854783949314171e-17
0
ARC
5
141
100
AcDbEntity
8
0
100
AcDbCircle
10
-2.9109369821444488
20
0.96857540024817268
30
2.18547839493141e-17
40
0.030000000000000197
210
-1.7908191958645873e-32
220
6.6425873589171469e-31
230
1
100
AcDbArc
50
-311.54550345065547
51
9.5120552803841054
0
LINE
5
142
100
AcDbEntity
8
0
100
AcDbLine
10
-2.891040542686107
20
0.99102827749988709
30
2.1854783949314085e-17
11
-2.7305582014222747
21
1.079923865531651
31
2.1854783949314032e-17
0
ARC
5
143
100
AcDbEntity
8
0
100
AcDbCircle
10
-3.1250000000000222
20
0.84999999999999565
30
1.9669305554382694e-16
40
0.45656250000001858
210
3.3084072184508687e-16
220
1.9285019467051305e-16
230
1
100
AcDbArc
50
30.238314636053826
51
41.311884337271572
0
ARC
5
144
100
AcDbEntity
8
0
100
AcDbCircle
10
-2.786633193772265
20
1.1371161500320157
30
1.9669305554382694e-16
40
0.015000022228143331
210
5.5192499506933685e-30
220
1.7255677447813074e-29
230
1
100
AcDbArc
50
72.263059945286727
51
175.21521899722367
0
ARC
5
145
100
AcDbEntity
8
0
100
AcDbCircle
10
-2.8950042055401357
20
1.1461873301320864
30
3.7153132713833977e-16
40
0.093750000000000083
210
-2.7152736528985091e-32
220
8.6716469720542804e-31
230
1
100
AcDbArc
50
109.12457429628166
51
355.21521899722239
0
ARC
5
146
100
AcDbEntity
8
0
100
AcDbCircle
10
-2.9306332241584259
20
1.2489352524093635
30
-3.2782175923971154e-16
40
0.014999999999999226
210
-1.5274951194066935e-14
220
4.4050315134743746e-14
230
1
100
AcDbArc
50
-70.875425703720651
51
32.076733348067599
0
ARC
5
147
100
AcDbEntity
8
0
100
AcDbCircle
10
-3.1250000000000222
20
0.84999999999999565
30
1.9669305554382694e-16
40
0.45656248093701307
210
5.7053440633486429e-16
220
9.9869570773679378e-16
230
1
100
AcDbArc
50
63.0279103908873
51
74.101478657455189
0
LINE
5
148
100
AcDbEntity
8
0
100
AcDbLine
10
-2.9999318261761907
20
1.2890982444768111
30
2.0156091891294913e-16
11
-3.0463108032603103
21
1.1115989545805962
31
2.1854783949314245e-17
0
ARC
5
149
100
AcDbEntity
8
0
100
AcDbCircle
10
-3.0631363474542215
20
1.0867614614989818
30
2.18547839493141e-17
40
0.030000000000000124
210
8.7378293161892955e-32
220
6.567152348665188e-31
230
1
100
AcDbArc
50
-265.17226198687433
51
55.885296744165352
0
LINE
5
150
100
AcDbEntity
8
0
100
AcDbLine
10
-3.0656611551128865
20
1.1166550284706023
30
2.1854783949314082e-17
11
-3.0192821780287717
21
1.2941543183668269
31
2.1854783949313962e-17
0
ARC
5
151
100
AcDbEntity
8
0
100
AcDbCircle
10
-3.1250000000000222
20
0.84999999999999565
30
1.9669305554382694e-16
40
0.45656249999999943
210
8.8671536989677746e-17
220
3.7253743347928621e-16
230
1
100
AcDbArc
50
76.61155609983399
51
87.685125801065865
0
ARC
5
152
100
AcDbEntity
8
0
100
AcDbCircle
10
-3.0993701680850632
20
1.2930247068527938
30
2.1854783949314113e-17
40
0.015000022228143865
210
5.2836795075724857e-15
220
-9.4505961449206099e-15
230
1
100
AcDbArc
50
118.63630140934207
51
221.58846046102596
0
ARC
5
153
100
AcDbEntity
8
0
100
AcDbCircle
10
-3.1807077504681547
20
1.2208391113916928
30
-1.5298348764519871e-16
40
0.093750000000000028
210
-7.9108438865807619e-32
220
8.2491634003348026e-31
230
1
100
AcDbArc
50
-204.50218423994363
51
41.588460461025385
0
ARC
5
154
100
AcDbEntity
8
0
100
AcDbCircle
10
-3.2796643193742465
20
1.2659407740033306
30
2.18547839493141e-17
40
0.015000000000000617
210
1.0606219445495315e-14
220
-4.8340209882335087e-15
230
1
100
AcDbArc
50
-24.502184239939197
51
78.449974811855995
0
ARC
5
155
100
AcDbEntity
8
0
100
AcDbCircle
10
-3.1250000000000222
20
0.84999999999999565
30
1.9669305554382694e-16
40
0.45656248093701757
210
-1.2720667143085791e-16
220
3.6119974502329854e-16
230
1
100
AcDbArc
50
109.40115185466998
51
120.47472012123983
0
LINE
5
156
100
AcDbEntity
8
0
100
AcDbLine
10
-3.3565493919624556
20
1.2434897654171926
30
1.9669305554382662e-16
11
-3.2600661130535853
21
1.0874513588628143
31
2.1854783949314223e-17
0
ARC
5
157
100
AcDbEntity
8
0
100
AcDbCircle
10
-3.2536964141548608
20
1.0581353745549313
30
2.1854783949314103e-17
40
0.030000000000000571
210
1.7795490713245793e-31
220
8.6672822266045458e-31
230
1
100
AcDbArc
50
-218.79902052308762
51
102.25853820795244
0
LINE
5
158
100
AcDbEntity
8
0
100
AcDbLine
10
-3.2770768744549783
20
1.0769330892073739
30
2.1854783949314091e-17
11
-3.3735601533638588
21
1.2329714957617546
31
2.185478394931398e-17
0
ARC
5
159
100
AcDbEntity
8
0
100
AcDbCircle
10
-3.1250000000000222
20
0.84999999999999565
30
1.9669305554382694e-16
40
0.4565625000000032
210
-2.0848150692278588e-16
220
3.2121992791022047e-16
230
1
100
AcDbArc
50
122.98479756361856
51
134.05836726484529
0
ARC
5
160
100
AcDbEntity
8
0
100
AcDbCircle
10
-3.427999807772887
20
1.1742204429945517
30
2.1854783949314109e-17
40
0.015000022228144791
210
1.1259205745486455e-14
220
-3.0148852661419464e-15
230
1
100
AcDbArc
50
165.00954287295664
51
267.9617019248065
0
ARC
5
161
100
AcDbEntity
8
0
100
AcDbCircle
10
-3.4318677743959549
20
1.0655392517322047
30
2.1854783949314103e-17
40
0.093750000000000111
210
1.5506780921457577e-32
220
7.9508549396939315e-31
230
1
100
AcDbArc
50
-158.1289427761626
51
87.961701924805141
0
ARC
5
162
100
AcDbEntity
8
0
100
AcDbCircle
10
-3.5327904441076843
20
1.0250278059636657
30
2.1854783949314103e-17
40
0.015000000000000202
210
-2.0993444034964238e-30
220
1.9189344726715249e-32
230
1
100
AcDbArc
50
21.871057223835773
51
124.8232162756246
0
ARC
5
163
100
AcDbEntity
8
0
100
AcDbCircle
10
-3.1250000000000222
20
0.84999999999999565
30
1.9669305554382694e-16
40
0.45656248093700913
210
-3.6061051354789498e-16
220
1.3182269334503384e-16
230
1
100
AcDbArc
50
155.77439331845443
51
166.65086533333516
0
LINE
5
164
100
AcDbEntity
8
0
100
AcDbLine
10
-3.5692267442424823
20
0.955413073695764
30
1.694128867133002e-16
11
-3.3938348546142723
21
0.91412552817486747
31
-3.2782175923971149e-16
0
ARC
5
165
100
AcDbEntity
8
0
100
AcDbCircle
10
-3.3685945051825104
20
0.89791057333179203
30
-3.2782175923971154e-16
40
0.03000000000000003
210
0
220
0
230
1
100
AcDbArc
50
-173.77513872510019
51
147.28242000593849
0
LINE
5
166
100
AcDbEntity
8
0
100
AcDbLine
10
-3.3984176254304725
20
0.89465765177178025
30
-3.2782175923971154e-16
11
-3.5734178615500349
21
0.93585300139865712
31
2.1854783949314072e-17
0
ARC
5
167
100
AcDbEntity
8
0
100
AcDbCircle
10
-3.1250000000000222
20
0.84999999999999565
30
1.9669305554382694e-16
40
0.45656249999999471
210
-3.7611350911181453e-16
220
7.200978460629631e-17
230
1
100
AcDbArc
50
169.16145075915961
51
179.42567454592637
0
ARC
5
168
100
AcDbEntity
8
0
100
AcDbCircle
10
-3.5679809969676728
20
0.86099273776272933
30
2.1854783949314109e-17
40
0.015000116806705184
210
1.0535641437093979e-14
220
4.9857590661126056e-15
230
1
100
AcDbArc
50
205.32481691725295
51
308.69045363061184
0
ARC
5
169
100
AcDbEntity
8
0
100
AcDbCircle
10
-3.4999999999999956
20
0.77610960309346433
30
2.1854783949314103e-17
40
0.093750000000000194
210
3.6671865830088874e-33
220
7.9343145351818458e-31
230
1
100
AcDbArc
50
-128.74186942985625
51
128.69045363061164
0
ARC
5
170
100
AcDbEntity
8
0
100
AcDbCircle
10
-3.568057141587166
20
0.69128750703952302
30
2.1854783949314103e-17
40
0.01500000000000056
210
-2.8525269659809143e-30
220
-2.6886069373244496e-30
230
1
100
AcDbArc
50
51.25813057014701
51
154.20392505058601
0
LINE
5
171
100
AcDbEntity
8
0
100
AcDbLine
10
-3.5815623703594732
20
0.69781504836897179
30
2.1854783949314097e-17
11
-3.5815625000000408
21
0.63435352527494071
31
2.1854783949314103e-17
0
SPLINE
5
172
100
AcDbEntity
8
0
100
AcDbSpline
70
0
71
3
72
27
73
23
74
0
42
0.000000001
43
0.0000000001
44
0.0000000001
40
0.22125452850369084
40
0.22125452850369084
40
0.22125452850369084
40
0.22125452850369084
40
0.22220725380003481
40
0.22220725380003481
40
0.24073305330890132
40
0.24073305330890132
40
0.25925347002840793
40
0.25925347002840793
40
0.27776746577245792
40
0.27776746577245792
40
0.29627618836903091
40
0.29627618836903091
40
0.29627618836903091
40
0.3147849109656039
40
0.3147849109656039
40
0.33329890670965395
40
0.33329890670965395
40
0.35181932342916067
40
0.35181932342916067
40
0.37034512293802713
40
0.37034512293802713
40
0.37129784823437412
40
0.37129784823437412
40
0.37129784823437412
40
0.37129784823437412
10
-3.1081018108700604
20
0.019681406581177386
30
-1.5298348764519871e-16
10
-3.1082289854128895
20
0.019683848783353972
30
2.1854783949314103e-17
10
-3.1083551613208416
20
0.019685039370078667
30
1.9669305554382694e-16
10
-3.1109113981719196
20
0.019685039370078667
30
2.1854783949314103e-17
10
-3.1137728345342923
20
0.019116102551371229
30
1.9669305554382694e-16
10
-3.1182646824436273
20
0.017256127106597442
30
2.1854783949314103e-17
10
-3.1206900632978378
20
0.015636222959845535
30
2.1854783949314103e-17
10
-3.1241272978273571
20
0.012200154651232495
30
1.9669305554382694e-16
10
-3.1257475829625414
20
0.0097762444972422542
30
-1.5298348764519871e-16
10
-3.1276074140866976
20
0.0052876745940233644
30
-1.5298348764519871e-16
10
-3.1281762806488675
20
0.0024289662200227052
30
-1.5298348764519871e-16
10
-3.1281762806488675
20
8.2435964595604773e-32
30
-1.5298348764519871e-16
10
-3.1281762806488675
20
-0.0024289662200227052
30
-1.5298348764519871e-16
10
-3.1276074140866976
20
-0.0052876745940233644
30
-1.5298348764519871e-16
10
-3.1257475829625414
20
-0.0097762444972422542
30
-1.5298348764519871e-16
10
-3.1241272978273571
20
-0.012200154651232495
30
1.9669305554382694e-16
10
-3.1206900632978378
20
-0.015636222959845545
30
2.1854783949314103e-17
10
-3.1182646824436273
20
-0.017256127106597529
30
2.1854783949314103e-17
10
-3.1137728345342923
20
-0.019116102551371309
30
1.9669305554382694e-16
10
-3.1109113981719196
20
-0.019685039370078667
30
2.1854783949314103e-17
10
-3.1083551613208416
20
-0.019685039370078667
30
1.9669305554382694e-16
10
-3.1082289854128891
20
-0.019683848783353983
30
-1.5298348764519871e-16
10
-3.10810181087006
20
-0.019681406581177386
30
2.1854783949314103e-17
0
SPLINE
5
173
100
AcDbEntity
8
0
100
AcDbSpline
70
0
71
3
72
26
73
22
74
0
42
0.000000001
43
0.0000000001
44
0.0000000001
40
-0.22318733214971512
40
-0.22318733214971512
40
-0.22318733214971512
40
-0.22318733214971512
40
-0.22223437350634678
40
-0.22223437350634678
40
-0.20370254425783269
40
-0.20370254425783269
40
-0.18517830136706062
40
-0.18517830136706062
40
-0.16666335287237199
40
-0.16666335287237199
40
-0.14815614158116944
40
-0.14815614158116944
40
-0.12964893028996688
40
-0.12964893028996688
40
-0.11113398179527825
40
-0.11113398179527825
40
-0.092609738904506189
40
-0.092609738904506189
40
-0.074077909655992077
40
-0.074077909655992077
40
-0.073124951012623757
40
-0.073124951012623757
40
-0.073124951012623757
40
-0.073124951012623757
10
-3.1081018108701541
20
-0.019681406576281264
30
-3.2782175923971154e-16
10
-3.107974605222803
20
-0.019683848785110633
30
-1.5298348764519871e-16
10
-3.1078483984450433
20
-0.01968503937007867
30
2.1854783949314103e-17
10
-3.1052913396665813
20
-0.019685039370078608
30
2.1854783949314103e-17
10
-3.1024289526277582
20
-0.019116014662867196
30
1.9669305554382694e-16
10
-3.0979358126684384
20
-0.017255778710016621
30
-1.5298348764519871e-16
10
-3.0955097879312259
20
-0.015635753757566106
30
1.9669305554382694e-16
10
-3.0920718404836305
20
-0.012199511548338853
30
2.1854783949314103e-17
10
-3.0904512526723025
20
-0.0097756232610355809
30
2.1854783949314103e-17
10
-3.0885912070180801
20
-0.0052872216000246827
30
2.1854783949314103e-17
10
-3.0880222802002586
20
-0.0024287678859845866
30
1.9669305554382694e-16
10
-3.0880222802002586
20
0.0024287678859845866
30
1.9669305554382694e-16
10
-3.0885912070180801
20
0.0052872216000246827
30
2.1854783949314103e-17
10
-3.0904512526723025
20
0.0097756232610355809
30
2.1854783949314103e-17
10
-3.0920718404836305
20
0.012199511548338853
30
2.1854783949314103e-17
10
-3.0955097879312259
20
0.015635753757566106
30
1.9669305554382694e-16
10
-3.0979358126684384
20
0.017255778710016621
30
-1.5298348764519871e-16
10
-3.1024289526277582
20
0.019116014662867196
30
1.9669305554382694e-16
10
-3.1052913396665813
20
0.019685039370078608
30
2.1854783949314103e-17
10
-3.1078483984450438
20
0.019685039370078674
30
3.7153132713833977e-16
10
-3.107974605222803
20
0.01968384878511063
30
-1.5298348764519871e-16
10
-3.1081018108701541
20
0.019681406576281257
30
2.1854783949314103e-17
0
SPLINE
5
174
100
AcDbEntity
8
0
100
AcDbSpline
70
0
71
3
72
27
73
23
74
0
42
0.000000001
43
0.0000000001
44
0.0000000001
40
0.22129420421999441
40
0.22129420421999441
40
0.22129420421999441
40
0.22129420421999441
40
0.22220133051702703
40
0.22220133051702703
40
0.24072583534847833
40
0.24072583534847833
40
0.25924546599572995
40
0.25924546599572995
40
0.27775927853104843
40
0.27775927853104843
40
0.29626831134474974
40
0.29626831134474974
40
0.29626831134474974
40
0.31477734415845104
40
0.31477734415845104
40
0.33329115669376957
40
0.33329115669376957
40
0.35181078734102117
40
0.35181078734102117
40
0.37033529217247246
40
0.37033529217247246
40
0.37124241846950695
40
0.37124241846950695
40
0.37124241846950695
40
0.37124241846950695
10
-3.2656850524625085
20
0.019681748320766249
30
2.1854783949314103e-17
10
-3.2658060483368354
20
0.019683959971689716
30
2.1854783949314103e-17
10
-3.2659261327387696
20
0.019685039370079024
30
2.1854783949314103e-17
10
-3.2684762155640299
20
0.019685039370078924
30
-3.2782175923971154e-16
10
-3.2713374476620736
20
0.019116120722842803
30
2.1854783949314103e-17
10
-3.275829023093217
20
0.017256200993614787
30
2.1854783949314103e-17
10
-3.2782542714032297
20
0.015636321280375932
30
2.1854783949314103e-17
10
-3.2816913613758287
20
0.012200288288294829
30
2.1854783949314103e-17
10
-3.2833115864762918
20
0.0097763727083452663
30
2.1854783949314103e-17
10
-3.285171375714159
20
0.0052877674079966457
30
2.1854783949314103e-17
10
-3.2857402307574826
20
0.0024290069309319323
30
2.1854783949314103e-17
10
-3.2857402307574826
20
8.2435964595604915e-32
30
2.1854783949314103e-17
10
-3.2857402307574826
20
-0.0024290069309319323
30
2.1854783949314103e-17
10
-3.285171375714159
20
-0.0052877674079966457
30
2.1854783949314103e-17
10
-3.2833115864762918
20
-0.0097763727083452663
30
2.1854783949314103e-17
10
-3.2816913613758287
20
-0.012200288288294829
30
2.1854783949314103e-17
10
-3.2782542714032297
20
-0.015636321280375932
30
2.1854783949314103e-17
10
-3.275829023093217
20
-0.017256200993614787
30
2.1854783949314103e-17
10
-3.2713374476620736
20
-0.019116120722842803
30
2.1854783949314103e-17
10
-3.2684762155640299
20
-0.019685039370078924
30
-3.2782175923971154e-16
10
-3.2659261327387696
20
-0.019685039370079024
30
2.1854783949314103e-17
10
-3.2658060483368341
20
-0.019683959971689705
30
2.1854783949314103e-17
10
-3.2656850524625085
20
-0.019681748320766249
30
2.1854783949314103e-17
0
SPLINE
5
175
100
AcDbEntity
8
0
100
AcDbSpline
70
0
71
3
72
26
73
22
74
0
42
0.000000001
43
0.0000000001
44
0.0000000001
40
-0.22313321942012834
40
-0.22313321942012834
40
-0.22313321942012834
40
-0.22313321942012834
40
-0.2222258919095168
40
-0.2222258919095168
40
-0.20369592902832245
40
-0.20369592902832245
40
-0.18517284055413355
40
-0.18517284055413355
40
-0.16665816897207414
40
-0.16665816897207414
40
-0.14815050200207044
40
-0.14815050200207044
40
-0.12964283503206675
40
-0.12964283503206675
40
-0.11112816345000734
40
-0.11112816345000734
40
-0.092605074975818436
40
-0.092605074975818436
40
-0.074075112094624085
40
-0.074075112094624085
40
-0.073167784584009965
40
-0.073167784584009965
40
-0.073167784584009965
40
-0.073167784584009965
10
-3.2656850524625782
20
-0.019681748316914927
30
3.7153132713833977e-16
10
-3.2655640297867143
20
-0.019683959973040614
30
-3.2782175923971154e-16
10
-3.2654439187763167
20
-0.019685039370079024
30
-3.2782175923971154e-16
10
-3.2628930932655806
20
-0.019685039370078924
30
-3.2782175923971154e-16
10
-3.2600310006042825
20
-0.019116041273953756
30
2.1854783949314103e-17
10
-3.2555382564041828
20
-0.017255885758757375
30
3.7153132713833977e-16
10
-3.2531124261554889
20
-0.01563589692336604
30
-3.2782175923971154e-16
10
-3.2496746921977184
20
-0.01219970682990839
30
-3.2782175923971154e-16
10
-3.2480541938958809
20
-0.0097758111559278962
30
-3.2782175923971154e-16
10
-3.2461942111226598
20
-0.0052873580421382666
30
-1.5298348764519871e-16
10
-3.245625301758845
20
-0.0024288276863521918
30
-1.5298348764519871e-16
10
-3.245625301758845
20
0.0024288276863521918
30
-1.5298348764519871e-16
10
-3.2461942111226598
20
0.0052873580421382666
30
-1.5298348764519871e-16
10
-3.2480541938958809
20
0.0097758111559278962
30
-3.2782175923971154e-16
10
-3.2496746921977184
20
0.01219970682990839
30
-3.2782175923971154e-16
10
-3.2531124261554889
20
0.01563589692336604
30
-3.2782175923971154e-16
10
-3.2555382564041828
20
0.017255885758757375
30
3.7153132713833977e-16
10
-3.2600310006042825
20
0.019116041273953756
30
2.1854783949314103e-17
10
-3.2628930932655806
20
0.019685039370078924
30
-3.2782175923971154e-16
10
-3.2654439187763167
20
0.019685039370079024
30
-3.2782175923971154e-16
10
-3.2655640297867152
20
0.019683959973040614
30
2.1854783949314103e-17
10
-3.2656850524625796
20
0.019681748316914913
30
2.1854783949314103e-17
0
SPLINE
5
176
100
AcDbEntity
8
0
100
AcDbSpline
70
0
71
3
72
27
73
23
74
0
42
0.000000001
43
0.0000000001
44
0.0000000001
40
0.22127481597801729
40
0.22127481597801729
40
0.22127481597801729
40
0.22127481597801729
40
0.22220418226278113
40
0.22220418226278113
40
0.2407293104611575
40
0.2407293104611575
40
0.25924931963698328
40
0.25924931963698328
40
0.27776322041231644
40
0.27776322041231644
40
0.29627210384052899
40
0.29627210384052899
40
0.29627210384052899
40
0.31478098726874154
40
0.31478098726874154
40
0.33329488804407464
40
0.33329488804407464
40
0.35181489721990045
40
0.35181489721990045
40
0.37034002541827682
40
0.37034002541827682
40
0.37126939170304185
40
0.37126939170304185
40
0.37126939170304185
40
0.37126939170304185
10
-3.1868947035713973
20
0.019681583778937514
30
2.1854783949314103e-17
10
-3.1870187118890287
20
0.019683906421615074
30
2.1854783949314103e-17
10
-3.1871417666371049
20
0.019685039370079017
30
2.1854783949314103e-17
10
-3.1896948499026085
20
0.019685039370079017
30
2.1854783949314103e-17
10
-3.1925561803505511
20
0.019116111972543936
30
2.1854783949314103e-17
10
-3.1970478869821992
20
0.017256165416556866
30
2.1854783949314103e-17
10
-3.1994731991177803
20
0.015636273936789732
30
-1.5298348764519871e-16
10
-3.2029103587035559
20
0.012200223937505784
30
2.1854783949314103e-17
10
-3.2045306127163933
20
0.0097763109690542378
30
2.1854783949314103e-17
10
-3.2063904221274231
20
0.0052877227130959789
30
2.1854783949314103e-17
10
-3.2069592827187847
20
0.0024289873265370778
30
2.1854783949314103e-17
10
-3.2069592827187847
20
8.2435964595604915e-32
30
2.1854783949314103e-17
10
-3.2069592827187847
20
-0.0024289873265370778
30
2.1854783949314103e-17
10
-3.2063904221274231
20
-0.0052877227130959789
30
2.1854783949314103e-17
10
-3.2045306127163933
20
-0.0097763109690542378
30
2.1854783949314103e-17
10
-3.2029103587035559
20
-0.012200223937505784
30
2.1854783949314103e-17
10
-3.1994731991177803
20
-0.015636273936789732
30
-1.5298348764519871e-16
10
-3.1970478869821992
20
-0.017256165416556866
30
2.1854783949314103e-17
10
-3.1925561803505511
20
-0.019116111972543936
30
2.1854783949314103e-17
10
-3.1896948499026085
20
-0.019685039370079017
30
2.1854783949314103e-17
10
-3.1871417666371049
20
-0.019685039370079017
30
2.1854783949314103e-17
10
-3.1870187118890287
20
-0.019683906421615081
30
3.7153132713833977e-16
10
-3.1868947035713973
20
-0.019681583778937514
30
3.7153132713833977e-16
0
SPLINE
5
177
100
AcDbEntity
8
0
100
AcDbSpline
70
0
71
3
72
26
73
22
74
0
42
0.000000001
43
0.0000000001
44
0.0000000001
40
-0.22315955804035198
40
-0.22315955804035198
40
-0.22315955804035198
40
-0.22315955804035198
40
-0.22222997526828467
40
-0.22222997526828467
40
-0.20369911385541337
40
-0.20369911385541337
40
-0.18517546966924006
40
-0.18517546966924006
40
-0.16666066481075442
40
-0.16666066481075442
40
-0.14815321719837032
40
-0.14815321719837032
40
-0.12964576958598623
40
-0.12964576958598623
40
-0.1111309647275006
40
-0.1111309647275006
40
-0.092607320541327309
40
-0.092607320541327309
40
-0.074076459128456007
40
-0.074076459128456007
40
-0.07314687635638685
40
-0.07314687635638685
40
-0.07314687635638685
40
-0.07314687635638685
10
-3.1868947035714781
20
-0.019681583774601292
30
3.7153132713833977e-16
10
-3.1867706664075248
20
-0.019683906423152975
30
1.9669305554382694e-16
10
-3.1866475830257515
20
-0.019685039370079017
30
1.9669305554382694e-16
10
-3.1840937189594869
20
-0.019685039370079017
30
2.1854783949314103e-17
10
-3.1812314845747447
20
-0.019116028463546118
30
-1.5298348764519871e-16
10
-3.1767385498517626
20
-0.017255834222740858
30
-1.5298348764519871e-16
10
-3.1743126259798307
20
-0.015635828001685483
30
2.1854783949314103e-17
10
-3.1708747892560183
20
-0.012199612821186244
30
2.1854783949314103e-17
10
-3.1692542478700152
20
-0.0097757207045749122
30
-1.5298348764519871e-16
10
-3.1673942348310753
20
-0.0052872923611214841
30
1.9669305554382694e-16
10
-3.166825317066789
20
-0.0024287988992630067
30
-1.5298348764519871e-16
10
-3.166825317066789
20
0.0024287988992630067
30
-1.5298348764519871e-16
10
-3.1673942348310753
20
0.0052872923611214841
30
1.9669305554382694e-16
10
-3.1692542478700152
20
0.0097757207045749122
30
-1.5298348764519871e-16
10
-3.1708747892560183
20
0.012199612821186244
30
2.1854783949314103e-17
10
-3.1743126259798307
20
0.015635828001685483
30
2.1854783949314103e-17
10
-3.1767385498517626
20
0.017255834222740858
30
-1.5298348764519871e-16
10
-3.1812314845747447
20
0.019116028463546118
30
-1.5298348764519871e-16
10
-3.1840937189594869
20
0.019685039370079017
30
2.1854783949314103e-17
10
-3.1866475830257515
20
0.019685039370079017
30
1.9669305554382694e-16
10
-3.1867706664075257
20
0.019683906423152975
30
3.7153132713833977e-16
10
-3.186894703571479
20
0.019681583774601292
30
3.7153132713833977e-16
0
SPLINE
5
178
100
AcDbEntity
8
0
100
AcDbSpline
70
0
71
3
72
27
73
23
74
0
42
0.000000001
43
0.0000000001
44
0.0000000001
40
0.22131275134066147
40
0.22131275134066147
40
0.22131275134066147
40
0.22131275134066147
40
0.2221986780764923
40
0.2221986780764923
40
0.24072033193402267
40
0.24072033193402267
40
0.25923734075399896
40
0.25923734075399896
40
0.27775334225459242
40
0.27775334225459242
40
0.29626478371128229
40
0.29626478371128229
40
0.29626478371128229
40
0.31477395552541226
40
0.31477395552541226
40
0.33328768592835428
40
0.33328768592835428
40
0.35180696437119469
40
0.35180696437119469
40
0.37033088931912073
40
0.37033088931912073
40
0.37121681605495027
40
0.37121681605495027
40
0.37121681605495027
40
0.37121681605495027
10
-3.3444730373204203
20
0.098422058864156808
30
2.1854783949314103e-17
10
-3.344591163598126
20
0.098424167291726067
30
2.1854783949314103e-17
10
-3.3447084177860731
20
0.098425196850393956
30
2.1854783949314103e-17
10
-3.3472553443731288
20
0.098425196850393956
30
2.1854783949314103e-17
10
-3.3501161477314394
20
0.09785642416416461
30
2.1854783949314103e-17
10
-3.3546071390624403
20
0.095996971148189517
30
-3.2782175923971154e-16
10
-3.3570321464014734
20
0.094377474040953577
30
2.1854783949314103e-17
10
-3.3604694988949961
20
0.090941784025453692
30
2.1854783949314103e-17
10
-3.3620900690032167
20
0.088517684428430055
30
2.1854783949314103e-17
10
-3.3639502813264697
20
0.084028601331189237
30
2.1854783949314103e-17
10
-3.3645192690517196
20
0.081169480506127253
30
2.1854783949314103e-17
10
-3.3645192690517196
20
0.078740157480314932
30
2.1854783949314103e-17
10
-3.3645192690517196
20
0.076311132307856938
30
2.1854783949314103e-17
10
-3.3639504191726597
20
0.073452348484193589
30
2.1854783949314103e-17
10
-3.3620906487102733
20
0.068963727326314686
30
2.1854783949314103e-17
10
-3.3604704505166367
20
0.066539809318768003
30
2.1854783949314103e-17
10
-3.3570334253205569
20
0.063103792152391369
30
2.1854783949314103e-17
10
-3.3546082363969036
20
0.061483923388603035
30
-3.2782175923971154e-16
10
-3.3501167830254097
20
0.059624028615819266
30
2.1854783949314103e-17
10
-3.3472556424164881
20
0.059055118110235921
30
2.1854783949314103e-17
10
-3.3447084177860731
20
0.059055118110235921
30
2.1854783949314103e-17
10
-3.344591163598126
20
0.059056147668903845
30
3.7153132713833977e-16
10
-3.3444730373204203
20
0.059058256096473111
30
2.1854783949314103e-17
0
SPLINE
5
179
100
AcDbEntity
8
0
100
AcDbSpline
70
0
71
3
72
26
73
22
74
0
42
0.000000001
43
0.0000000001
44
0.0000000001
40
-0.22310820820052452
40
-0.22310820820052452
40
-0.22310820820052452
40
-0.22310820820052452
40
-0.22222209412103308
40
-0.22222209412103308
40
-0.20369296693227881
40
-0.20369296693227881
40
-0.18517039519873946
40
-0.18517039519873946
40
-0.1666558475064282
40
-0.1666558475064282
40
-0.14814797655645184
40
-0.14814797655645184
40
-0.12963681910894712
40
-0.12963681910894712
40
-0.11111898184680155
40
-0.11111898184680155
40
-0.092599696594955899
40
-0.092599696594955899
40
-0.074073858934543296
40
-0.074073858934543296
40
-0.073187744855051889
40
-0.073187744855051889
40
-0.073187744855051889
40
-0.073187744855051889
10
-3.3444730373204816
20
0.059058256099903207
30
-3.2782175923971154e-16
10
-3.3443548860972334
20
0.059056147667713388
30
3.7153132713833977e-16
10
-3.3442376071394602
20
0.059055118110235921
30
2.1854783949314103e-17
10
-3.3416896752144924
20
0.059055118110235921
30
2.1854783949314103e-17
10
-3.3388277143655749
20
0.059624104293675428
30
3.7153132713833977e-16
10
-3.3343351473489262
20
0.061484223791189778
30
-3.2782175923971154e-16
10
-3.3319094041587083
20
0.063104196460734827
30
-3.2782175923971154e-16
10
-3.3284717657541645
20
0.066540363227170038
30
2.1854783949314103e-17
10
-3.326851307508508
20
0.06896426221174945
30
2.1854783949314103e-17
10
-3.3249913528718715
20
0.07345273836223816
30
3.7153132713833977e-16
10
-3.3244224513168095
20
0.076311303024937549
30
3.7153132713833977e-16
10
-3.3244224513168095
20
0.081169443234580738
30
3.7153132713833977e-16
10
-3.3249915525151064
20
0.084028495871969977
30
-3.2782175923971154e-16
10
-3.3268521471050718
20
0.088517640985209228
30
3.7153132713833977e-16
10
-3.3284731440553315
20
0.090941802955446308
30
-3.2782175923971154e-16
10
-3.3319112565078464
20
0.094377495978786696
30
-3.2782175923971154e-16
10
-3.3343367367192744
20
0.095996930486801482
30
-3.2782175923971154e-16
10
-3.3388286345587543
20
0.097856410253331291
30
3.7153132713833977e-16
10
-3.3416901069111251
20
0.098425196850393956
30
2.1854783949314103e-17
10
-3.3442376071394593
20
0.098425196850393956
30
-3.2782175923971154e-16
10
-3.3443548860972334
20
0.098424167292916531
30
2.1854783949314103e-17
10
-3.3444730373204816
20
0.098422058860726705
30
2.1854783949314103e-17
0
SPLINE
5
180
100
AcDbEntity
8
0
100
AcDbSpline
70
0
71
3
72
27
73
23
74
0
42
0.000000001
43
0.0000000001
44
0.0000000001
40
0.22127481597840185
40
0.22127481597840185
40
0.22127481597840185
40
0.22127481597840185
40
0.22220418226278119
40
0.22220418226278119
40
0.24072680998478529
40
0.24072680998478529
40
0.25924432046347612
40
0.25924432046347612
40
0.27776072172359595
40
0.27776072172359595
40
0.29627210387318553
40
0.29627210387318553
40
0.29627210387318553
40
0.31478098730139809
40
0.31478098730139809
40
0.33329488807673119
40
0.33329488807673119
40
0.35181489725255699
40
0.35181489725255699
40
0.37034002545093336
40
0.37034002545093336
40
0.37126939173570211
40
0.37126939173570211
40
0.37126939173570211
40
0.37126939173570211
10
-3.1868947035715518
20
0.098421741259252488
30
-1.5298348764519871e-16
10
-3.1870187118891309
20
0.098424063901928094
30
2.1854783949314103e-17
10
-3.1871417666371551
20
0.098425196850393956
30
-3.2782175923971154e-16
10
-3.1896945217561035
20
0.098425196850393956
30
-1.5298348764519871e-16
10
-3.1925554808883363
20
0.097856421185888387
30
2.1854783949314103e-17
10
-3.1970466788230949
20
0.095996960983807902
30
1.9669305554382694e-16
10
-3.1994717910403949
20
0.09437747867126621
30
2.1854783949314103e-17
10
-3.2029093109780731
20
0.090941788846197025
30
2.1854783949314103e-17
10
-3.2045299744708675
20
0.088517675953530633
30
2.1854783949314103e-17
10
-3.2063902703618745
20
0.084028579123231598
30
2.1854783949314103e-17
10
-3.2069592827187847
20
0.081169472723043229
30
2.1854783949314103e-17
10
-3.2069592827187847
20
0.078740157480314932
30
2.1854783949314103e-17
10
-3.2069592827187847
20
0.076311170153777863
30
2.1854783949314103e-17
10
-3.2063904221274231
20
0.073452434767218966
30
2.1854783949314103e-17
10
-3.2045306127163933
20
0.068963846511260696
30
2.1854783949314103e-17
10
-3.2029103587035559
20
0.066539933542809154
30
2.1854783949314103e-17
10
-3.1994731991177803
20
0.06310388354352521
30
-1.5298348764519871e-16
10
-3.1970478869821992
20
0.061483992063758069
30
2.1854783949314103e-17
10
-3.1925561803505511
20
0.059624045507770999
30
2.1854783949314103e-17
10
-3.1896948499026085
20
0.059055118110235921
30
2.1854783949314103e-17
10
-3.187141766637104
20
0.059055118110235921
30
-3.2782175923971154e-16
10
-3.1870187118890274
20
0.059056251058699855
30
1.9669305554382694e-16
10
-3.1868947035713959
20
0.059058573701377431
30
2.1854783949314103e-17
0
SPLINE
5
181
100
AcDbEntity
8
0
100
AcDbSpline
70
0
71
3
72
26
73
22
74
0
42
0.000000001
43
0.0000000001
44
0.0000000001
40
-0.2231595581072463
40
-0.2231595581072463
40
-0.2231595581072463
40
-0.2231595581072463
40
-0.22222997533517916
40
-0.22222997533517916
40
-0.20369911392230786
40
-0.20369911392230786
40
-0.18517546973613455
40
-0.18517546973613455
40
-0.16666066487764891
40
-0.16666066487764891
40
-0.14815321726526459
40
-0.14815321726526459
40
-0.12964576965288047
40
-0.12964576965288047
40
-0.11113096479439483
40
-0.11113096479439483
40
-0.092607320608221619
40
-0.092607320608221619
40
-0.07407645919535033
40
-0.07407645919535033
40
-0.073146878274305799
40
-0.073146878274305799
40
-0.073146878274305799
40
-0.073146878274305799
10
-3.1868947035714776
20
0.059058573705713636
30
-1.5298348764519871e-16
10
-3.1867706664075244
20
0.059056251057161967
30
1.9669305554382694e-16
10
-3.1866475830257515
20
0.059055118110235921
30
1.9669305554382694e-16
10
-3.1840937189594869
20
0.059055118110235921
30
2.1854783949314103e-17
10
-3.1812314845747447
20
0.059624129016768827
30
-1.5298348764519871e-16
10
-3.1767385498517626
20
0.061484323257574074
30
-1.5298348764519871e-16
10
-3.1743126259798307
20
0.063104329478629456
30
2.1854783949314103e-17
10
-3.1708747892560183
20
0.066540544659128689
30
2.1854783949314103e-17
10
-3.1692542478700152
20
0.068964436775740018
30
-1.5298348764519871e-16
10
-3.1673942348310753
20
0.073452865119193481
30
1.9669305554382694e-16
10
-3.166825317066789
20
0.07631135858105198
30
-1.5298348764519871e-16
10
-3.166825317066789
20
0.081168956379578022
30
-1.5298348764519871e-16
10
-3.1673942348310753
20
0.084027449841436522
30
1.9669305554382694e-16
10
-3.1692542478700152
20
0.088515878184889943
30
-1.5298348764519871e-16
10
-3.1708747892560183
20
0.090939770301501271
30
2.1854783949314103e-17
10
-3.1743126259798307
20
0.094375985482000491
30
2.1854783949314103e-17
10
-3.1767385498517626
20
0.095995991703055825
30
-1.5298348764519871e-16
10
-3.1812314845747447
20
0.097856185943861071
30
-1.5298348764519871e-16
10
-3.1840937189594869
20
0.098425196850393956
30
2.1854783949314103e-17
10
-3.1866475827828347
20
0.098425196850393956
30
1.9669305554382694e-16
10
-3.1867706661803581
20
0.098424063907722709
30
3.7153132713833977e-16
10
-3.1868947035716322
20
0.098421741254913375
30
2.1854783949314103e-17
0
SPLINE
5
182
100
AcDbEntity
8
0
100
AcDbSpline
70
0
71
3
72
27
73
23
74
0
42
0.000000001
43
0.0000000001
44
0.0000000001
40
0.22129420422032964
40
0.22129420422032964
40
0.22129420422032964
40
0.22129420422032964
40
0.22220133051702701
40
0.22220133051702701
40
0.24072345370348713
40
0.24072345370348713
40
0.25924070431976004
40
0.25924070431976004
40
0.27775689850788188
40
0.27775689850788188
40
0.29626831137438348
40
0.29626831137438348
40
0.29626831137438348
40
0.31477734418808478
40
0.31477734418808478
40
0.33329115672340326
40
0.33329115672340326
40
0.35181078737065491
40
0.35181078737065491
40
0.3703352922021062
40
0.3703352922021062
40
0.37124241849914008
40
0.37124241849914008
40
0.37124241849914008
40
0.37124241849914008
10
-3.2656850524626435
20
0.098421905801081219
30
3.7153132713833977e-16
10
-3.2658060483369242
20
0.098424117452003024
30
-3.2782175923971154e-16
10
-3.2659261327388132
20
0.098425196850393956
30
2.1854783949314103e-17
10
-3.2684759030121935
20
0.098425196850393873
30
2.1854783949314103e-17
10
-3.271336781441696
20
0.097856422728478151
30
2.1854783949314103e-17
10
-3.2758278723456336
20
0.095996966250515015
30
2.1854783949314103e-17
10
-3.2782529302347991
20
0.094377476273060507
30
2.1854783949314103e-17
10
-3.2816903634358079
20
0.090941786348197287
30
2.1854783949314103e-17
10
-3.2833109785557957
20
0.08851768034203826
30
2.1854783949314103e-17
10
-3.2851712311593322
20
0.084028590625682145
30
2.1854783949314103e-17
10
-3.2857402307574826
20
0.081169476754134037
30
2.1854783949314103e-17
10
-3.2857402307574826
20
0.078740157480314932
30
2.1854783949314103e-17
10
-3.2857402307574826
20
0.076311150549383006
30
2.1854783949314103e-17
10
-3.285171375714159
20
0.073452390072318297
30
2.1854783949314103e-17
10
-3.2833115864762918
20
0.068963784771969669
30
2.1854783949314103e-17
10
-3.2816913613758287
20
0.06653986919202011
30
2.1854783949314103e-17
10
-3.2782542714032297
20
0.063103836199939006
30
2.1854783949314103e-17
10
-3.275829023093217
20
0.061483956486700145
30
2.1854783949314103e-17
10
-3.2713374476620736
20
0.059624036757472132
30
2.1854783949314103e-17
10
-3.2684762155640299
20
0.059055118110236005
30
-3.2782175923971154e-16
10
-3.2659261327387696
20
0.059055118110235921
30
2.1854783949314103e-17
10
-3.2658060483368354
20
0.059056197508625237
30
2.1854783949314103e-17
10
-3.2656850524625085
20
0.0590584091595487
30
2.1854783949314103e-17
0
SPLINE
5
183
100
AcDbEntity
8
0
100
AcDbSpline
70
0
71
3
72
26
73
22
74
0
42
0.000000001
43
0.0000000001
44
0.0000000001
40
-0.22313321948082832
40
-0.22313321948082832
40
-0.22313321948082832
40
-0.22313321948082832
40
-0.22222589197021642
40
-0.22222589197021642
40
-0.20369592908902204
40
-0.20369592908902204
40
-0.18517284061483313
40
-0.18517284061483313
40
-0.16665816903277372
40
-0.16665816903277372
40
-0.14815050206277003
40
-0.14815050206277003
40
-0.12964283509276653
40
-0.12964283509276653
40
-0.11112816351070712
40
-0.11112816351070712
40
-0.092605075036518214
40
-0.092605075036518214
40
-0.074075112155323863
40
-0.074075112155323863
40
-0.073167786327722958
40
-0.073167786327722958
40
-0.073167786327722958
40
-0.073167786327722958
10
-3.2656850524625782
20
0.059058409163400029
30
3.7153132713833977e-16
10
-3.2655640297867143
20
0.059056197507274338
30
-3.2782175923971154e-16
10
-3.2654439187763167
20
0.059055118110235921
30
-3.2782175923971154e-16
10
-3.2628930932655806
20
0.059055118110236005
30
-3.2782175923971154e-16
10
-3.2600310006042825
20
0.059624116206361266
30
2.1854783949314103e-17
10
-3.2555382564041828
20
0.061484271721557654
30
3.7153132713833977e-16
10
-3.2531124261554889
20
0.063104260556948982
30
-3.2782175923971154e-16
10
-3.2496746921977184
20
0.066540450650406632
30
-3.2782175923971154e-16
10
-3.2480541938958809
20
0.068964346324387124
30
-3.2782175923971154e-16
10
-3.2461942111226598
20
0.073452799438176758
30
-1.5298348764519871e-16
10
-3.245625301758845
20
0.076311329793962837
30
-1.5298348764519871e-16
10
-3.245625301758845
20
0.081168985166667193
30
-1.5298348764519871e-16
10
-3.2461942111226598
20
0.084027515522453231
30
-1.5298348764519871e-16
10
-3.2480541938958809
20
0.088515968636242823
30
-3.2782175923971154e-16
10
-3.2496746921977184
20
0.090939864310223328
30
-3.2782175923971154e-16
10
-3.2531124261554889
20
0.094376054403680978
30
-3.2782175923971154e-16
10
-3.2555382564041828
20
0.095996043239072307
30
3.7153132713833977e-16
10
-3.2600310006042825
20
0.097856198754268695
30
2.1854783949314103e-17
10
-3.2628930932655806
20
0.098425196850393873
30
-3.2782175923971154e-16
10
-3.2654439185554494
20
0.098425196850393956
30
2.1854783949314103e-17
10
-3.2655640295798016
20
0.09842411745713768
30
2.1854783949314103e-17
10
-3.2656850524627141
20
0.098421905797227413
30
2.1854783949314103e-17
0
SPLINE
5
184
100
AcDbEntity
8
0
100
AcDbSpline
70
0
71
3
72
27
73
23
74
0
42
0.000000001
43
0.0000000001
44
0.0000000001
40
0.22131275134065911
40
0.22131275134065911
40
0.22131275134065911
40
0.22131275134065911
40
0.22219867807649241
40
0.22219867807649241
40
0.24072260302441842
40
0.24072260302441842
40
0.25924188146725879
40
0.25924188146725879
40
0.27775561187020081
40
0.27775561187020081
40
0.29626478368433079
40
0.29626478368433079
40
0.29626478368433079
40
0.31477395549846077
40
0.31477395549846077
40
0.33328768590140279
40
0.33328768590140279
40
0.35180696434424319
40
0.35180696434424319
40
0.37033088929216917
40
0.37033088929216917
40
0.3712168160280031
40
0.3712168160280031
40
0.3712168160280031
40
0.3712168160280031
10
-3.3444730373204186
20
0.019681901383841842
30
2.1854783949314103e-17
10
-3.3445911635981251
20
0.019684009811411128
30
3.7153132713833977e-16
10
-3.3447084177860731
20
0.019685039370079017
30
2.1854783949314103e-17
10
-3.3472556424164881
20
0.019685039370079017
30
2.1854783949314103e-17
10
-3.3501167830254097
20
0.019116128864495669
30
2.1854783949314103e-17
10
-3.3546082363969036
20
0.017256234091711897
30
-3.2782175923971154e-16
10
-3.3570334253205569
20
0.015636365327923559
30
2.1854783949314103e-17
10
-3.3604704505166367
20
0.012200348161546928
30
2.1854783949314103e-17
10
-3.3620906487102733
20
0.0097764301540002596
30
2.1854783949314103e-17
10
-3.3639504191726597
20
0.0052878089961213379
30
2.1854783949314103e-17
10
-3.3645192690517196
20
0.0024290251724580032
30
2.1854783949314103e-17
10
-3.3645192690517196
20
8.2435964595604915e-32
30
2.1854783949314103e-17
10
-3.3645192690517196
20
-0.0024290251724580032
30
2.1854783949314103e-17
10
-3.3639504191726597
20
-0.0052878089961213379
30
2.1854783949314103e-17
10
-3.3620906487102733
20
-0.0097764301540002596
30
2.1854783949314103e-17
10
-3.3604704505166367
20
-0.012200348161546928
30
2.1854783949314103e-17
10
-3.3570334253205569
20
-0.015636365327923559
30
2.1854783949314103e-17
10
-3.3546082363969036
20
-0.017256234091711897
30
-3.2782175923971154e-16
10
-3.3501167830254097
20
-0.019116128864495669
30
2.1854783949314103e-17
10
-3.3472556424164881
20
-0.019685039370079017
30
2.1854783949314103e-17
10
-3.3447084177860731
20
-0.019685039370079017
30
2.1854783949314103e-17
10
-3.3445911635981251
20
-0.019684009811411128
30
3.7153132713833977e-16
10
-3.3444730373204186
20
-0.019681901383841842
30
2.1854783949314103e-17
0
SPLINE
5
185
100
AcDbEntity
8
0
100
AcDbSpline
70
0
71
3
72
26
73
22
74
0
42
0.000000001
43
0.0000000001
44
0.0000000001
40
-0.22310820814319485
40
-0.22310820814319485
40
-0.22310820814319485
40
-0.22310820814319485
40
-0.22222209406370533
40
-0.22222209406370533
40
-0.20369296687495106
40
-0.20369296687495106
40
-0.1851703951414117
40
-0.1851703951414117
40
-0.16665584744910045
40
-0.16665584744910045
40
-0.14814797649912431
40
-0.14814797649912431
40
-0.12964010554914818
40
-0.12964010554914818
40
-0.11112555785683692
40
-0.11112555785683692
40
-0.092602986123297565
40
-0.092602986123297565
40
-0.074073858934543296
40
-0.074073858934543296
40
-0.07318774485505386
40
-0.07318774485505386
40
-0.07318774485505386
40
-0.07318774485505386
10
-3.3444730373204803
20
-0.01968190138041177
30
-3.2782175923971154e-16
10
-3.3443548860972325
20
-0.019684009812601568
30
-3.2782175923971154e-16
10
-3.3442376071394593
20
-0.019685039370079017
30
-3.2782175923971154e-16
10
-3.3416896752144924
20
-0.019685039370079017
30
2.1854783949314103e-17
10
-3.3388277143655749
20
-0.019116053186639507
30
3.7153132713833977e-16
10
-3.3343351473489262
20
-0.017255933689125164
30
-3.2782175923971154e-16
10
-3.3319094041587083
20
-0.015635961019580109
30
-3.2782175923971154e-16
10
-3.3284717657541645
20
-0.012199794253144894
30
2.1854783949314103e-17
10
-3.326851307508508
20
-0.0097758952685654786
30
2.1854783949314103e-17
10
-3.3249913528718715
20
-0.0052874191180767938
30
3.7153132713833977e-16
10
-3.3244224513168095
20
-0.0024288544553774461
30
3.7153132713833977e-16
10
-3.3244224513168095
20
0.0024288544553774461
30
3.7153132713833977e-16
10
-3.3249913528718715
20
0.0052874191180767938
30
3.7153132713833977e-16
10
-3.326851307508508
20
0.0097758952685654786
30
2.1854783949314103e-17
10
-3.3284717657541645
20
0.012199794253144894
30
2.1854783949314103e-17
10
-3.3319094041587083
20
0.015635961019580109
30
-3.2782175923971154e-16
10
-3.3343351473489262
20
0.017255933689125164
30
-3.2782175923971154e-16
10
-3.3388277143655749
20
0.019116053186639507
30
3.7153132713833977e-16
10
-3.3416896752144924
20
0.019685039370079017
30
2.1854783949314103e-17
10
-3.3442376071394593
20
0.019685039370079017
30
-3.2782175923971154e-16
10
-3.3443548860972316
20
0.019684009812601575
30
-3.2782175923971154e-16
10
-3.3444730373204803
20
0.01968190138041177
30
-3.2782175923971154e-16
0
ENDSEC
0
SECTION
2
OBJECTS
0
DICTIONARY
5
C
100
AcDbDictionary
3
ACAD_GROUP
350
D
3
ACAD_MLINESTYLE
350
17
0
DICTIONARY
5
D
100
AcDbDictionary
0
DICTIONARY
5
1A
330
C
100
AcDbDictionary
0
DICTIONARY
5
17
100
AcDbDictionary
0
ENDSEC
0
EOF
