0
SECTION
2
HEADER
9
$INSUNITS
70
1
9
$ACADVER
1
AC1014
9
$HANDSEED
5
FFFF
0
ENDSEC
0
SECTION
2
TABLES
0
TABLE
2
VPORT
5
8
100
AcDbSymbolTable
0
ENDTAB
0
TABLE
2
LTYPE
5
5
100
AcDbSymbolTable
0
LTYPE
5
14
100
AcDbSymbolTableRecord
100
AcDbLinetypeTableRecord
2
BYBLOCK
70
0
0
LTYPE
5
15
100
AcDbSymbolTableRecord
100
AcDbLinetypeTableRecord
2
BYLAYER
70
0
0
ENDTAB
0
TABLE
2
LAYER
5
2
100
AcDbSymbolTable
70
2
0
LAYER
5
50
100
AcDbSymbolTableRecord
100
AcDbLayerTableRecord
2
0
70
0
6
CONTINUOUS
0
ENDTAB
0
TABLE
2
STYLE
5
3
100
AcDbSymbolTable
70
1
0
STYLE
5
11
100
AcDbSymbolTableRecord
100
AcDbTextStyleTableRecord
2
STANDARD
70
0
0
ENDTAB
0
TABLE
2
VIEW
5
6
100
AcDbSymbolTable
70
0
0
ENDTAB
0
TABLE
2
UCS
5
7
100
AcDbSymbolTable
70
0
0
ENDTAB
0
TABLE
2
APPID
5
9
100
AcDbSymbolTable
70
2
0
APPID
5
12
100
AcDbSymbolTableRecord
100
AcDbRegAppTableRecord
2
ACAD
70
0
0
ENDTAB
0
TABLE
2
DIMSTYLE
5
A
100
AcDbSymbolTable
70
1
0
ENDTAB
0
TABLE
2
BLOCK_RECORD
5
1
100
AcDbSymbolTable
70
1
0
BLOCK_RECORD
5
1F
100
AcDbSymbolTableRecord
100
AcDbBlockTableRecord
2
*MODEL_SPACE
0
BLOCK_RECORD
5
1B
100
AcDbSymbolTableRecord
100
AcDbBlockTableRecord
2
*PAPER_SPACE
0
ENDTAB
0
ENDSEC
0
SECTION
2
BLOCKS
0
BLOCK
5
20
100
AcDbEntity
100
AcDbBlockBegin
2
*MODEL_SPACE
0
ENDBLK
5
21
100
AcDbEntity
100
AcDbBlockEnd
0
BLOCK
5
1C
100
AcDbEntity
100
AcDbBlockBegin
2
*PAPER_SPACE
0
ENDBLK
5
1D
100
AcDbEntity
100
AcDbBlockEnd
0
ENDSEC
0
SECTION
2
ENTITIES
0
ARC
5
100
100
AcDbEntity
8
0
100
AcDbCircle
10
-3.3999999999999999
20
0.58641450582031462
30
1.593136130346293e-48
40
0.029999999999999864
210
-6.0582734383189115e-32
220
1.3535425440052556e-32
230
1
100
AcDbArc
50
-160.52877936551971
51
160.52877936551948
0
LINE
5
101
100
AcDbEntity
8
0
100
AcDbLine
10
-3.4282842712474637
20
0.57641450582031972
30
-1.5781842378066972e-33
11
-3.5815625000000022
21
0.57641450582031484
31
1.900752407625546e-45
0
LINE
5
102
100
AcDbEntity
8
0
100
AcDbLine
10
-3.5815625000000022
20
0.57641450582031484
30
1.900752407625546e-45
11
-3.5815624999999995
21
0.52065840529105156
31
-1.6378365417182284e-46
0
ARC
5
103
100
AcDbEntity
8
0
100
AcDbCircle
10
-3.5665624999999994
20
0.52065840529105234
30
4.0205115765040397e-47
40
0.015000000000000008
210
-1.5027699161375095e-44
220
2.4510328646414945e-32
230
1
100
AcDbArc
50
180
51
307.73925345773853
0
ARC
5
104
100
AcDbEntity
8
0
100
AcDbCircle
10
-3.5
20
0.43465842800181076
30
0
40
0.093750000000000056
210
1.014403415472599e-32
220
1.4521964819531243e-31
230
1
100
AcDbArc
50
-127.7392534577431
51
127.73925345773972
0
ARC
5
105
100
AcDbEntity
8
0
100
AcDbCircle
10
-3.5665625000000039
20
0.34865845071257284
30
2.1658233216142365e-46
40
0.014999999999999738
210
-8.3306369765322623e-31
220
-3.1191653151038013e-31
230
1
100
AcDbArc
50
52.260746542260563
51
180
0
LINE
5
106
100
AcDbEntity
8
0
100
AcDbLine
10
-3.5815625000000044
20
0.34865845071257034
30
-8.8746851837335703e-33
11
-3.5815624999999529
21
0.094999999999993728
31
2.8619038518444833e-45
0
LINE
5
107
100
AcDbEntity
8
0
100
AcDbLine
10
-3.5815624999999529
20
0.094999999999993728
30
2.8619038518444833e-45
11
-3.4777436023621573
21
0.094999999999999821
31
4.6003945506244974e-30
0
ARC
5
108
100
AcDbEntity
8
0
100
AcDbCircle
10
-3.4728223425196383
20
0.094999999999999835
30
0
40
0.0049212598425194048
210
1.9721522630525291e-31
220
1.1855571933896144e-31
230
1
100
AcDbArc
50
-90
51
180
0
LINE
5
109
100
AcDbEntity
8
0
100
AcDbLine
10
-3.4728223425196383
20
0.090078740157480422
30
5.8344350068383217e-34
11
-3.4728223425196383
21
-0.12500000000000022
31
0
0
LINE
5
110
100
AcDbEntity
8
0
100
AcDbLine
10
-3.4728223425196383
20
-0.12500000000000022
30
0
11
-2.7771776574800873
21
-0.12500000000000025
31
3.1057515953583139e-31
0
LINE
5
111
100
AcDbEntity
8
0
100
AcDbLine
10
-2.7771776574800873
20
-0.12500000000000025
30
3.1057515953583139e-31
11
-2.7771776574800873
21
0.090078740157480047
31
0
0
ARC
5
112
100
AcDbEntity
8
0
100
AcDbCircle
10
-2.7771776574800873
20
0.094999999999999807
30
0
40
0.0049212598425197544
210
1.9721522630525135e-31
220
-4.1375387053771705e-46
230
1
100
AcDbArc
50
0
51
270
0
LINE
5
113
100
AcDbEntity
8
0
100
AcDbLine
10
-2.7722563976375674
20
0.094999999999999793
30
-9.7054737354947916e-34
11
-2.6684374999997722
21
0.095000000000046714
31
4.1345318113207188e-30
0
LINE
5
114
100
AcDbEntity
8
0
100
AcDbLine
10
-2.6684374999997722
20
0.095000000000046714
30
4.1345318113207188e-30
11
-2.668437499999988
21
0.2328537503459884
31
-1.1206250022282615e-44
0
ARC
5
115
100
AcDbEntity
8
0
100
AcDbCircle
10
-2.6834374999999873
20
0.23285375034596498
30
2.4311636166129956e-47
40
0.014999999999999309
210
8.3221673715595639e-43
220
-5.3469004610195084e-32
230
1
100
AcDbArc
50
0
51
127.73925345774728
0
ARC
5
116
100
AcDbEntity
8
0
100
AcDbCircle
10
-2.7499999999999996
20
0.3188537276351967
30
0
40
0.093750000000000097
210
-5.0210625619586864e-32
220
6.7240314938549904e-32
230
1
100
AcDbArc
50
52.260746542268585
51
307.73925345774825
0
ARC
5
117
100
AcDbEntity
8
0
100
AcDbCircle
10
-2.6834375000000117
20
0.40485370492444733
30
4.7411057786580296e-47
40
0.014999999999999923
210
-2.0918147814207353e-31
220
-1.5460618008801259e-32
230
1
100
AcDbArc
50
-127.73925345773439
51
0
0
LINE
5
118
100
AcDbEntity
8
0
100
AcDbLine
10
-2.668437500000012
20
0.40485370492444883
30
2.9582283945779433e-33
11
-2.6684375000000067
21
0.46060980545372021
31
4.6549038554097019e-46
0
LINE
5
119
100
AcDbEntity
8
0
100
AcDbLine
10
-2.6684375000000067
20
0.46060980545372021
30
4.6549038554097019e-46
11
-2.8217157287525283
21
0.46060980545372288
31
-2.0365204367416564e-45
0
ARC
5
120
100
AcDbEntity
8
0
100
AcDbCircle
10
-2.8499999999999992
20
0.47060980545372016
30
-1.3401705255013465e-47
40
0.029999999999999808
210
1.0891896192297855e-31
220
-9.8687057952896016e-32
230
1
100
AcDbArc
50
19.471220634480389
51
340.52877936551988
0
LINE
5
121
100
AcDbEntity
8
0
100
AcDbLine
10
-2.8217157287525358
20
0.48060980545371496
30
-2.0938228834932461e-33
11
-2.6684375000000049
21
0.48060980545372028
31
-2.1044044512997115e-45
0
LINE
5
122
100
AcDbEntity
8
0
100
AcDbLine
10
-2.6684375000000049
20
0.48060980545372028
30
-2.1044044512997115e-45
11
-2.6684375000000005
21
0.53636590598300082
31
2.5860576974498344e-47
0
ARC
5
123
100
AcDbEntity
8
0
100
AcDbCircle
10
-2.6834375000000001
20
0.53636590598300204
30
-4.8488581827184399e-48
40
0.014999999999999658
210
-1.2772322435587724e-44
220
-1.3144833786710611e-31
230
1
100
AcDbArc
50
0
51
127.73925345774013
0
ARC
5
124
100
AcDbEntity
8
0
100
AcDbCircle
10
-2.7499999999999996
20
0.62236588327224385
30
0
40
0.093750000000000083
210
4.5393381119304573e-32
220
-1.3144833786710594e-31
230
1
100
AcDbArc
50
52.260746542256207
51
307.73925345773938
0
ARC
5
125
100
AcDbEntity
8
0
100
AcDbCircle
10
-2.6834374999999935
20
0.70836586056148043
30
7.0039062639266352e-48
40
0.014999999999999895
210
1.680351454486837e-31
220
4.7191021484644574e-31
230
1
100
AcDbArc
50
-127.73925345774489
51
0
0
LINE
5
126
100
AcDbEntity
8
0
100
AcDbLine
10
-2.6684374999999934
20
0.7083658605614811
30
2.9582283945782793e-33
11
-2.6684374999999965
21
0.76601641651722818
31
-1.2068269254765893e-46
0
LINE
5
127
100
AcDbEntity
8
0
100
AcDbLine
10
-2.6684374999999965
20
0.76601641651722818
30
-1.2068269254765893e-46
11
-2.8252657045398228
21
0.76205658460402703
31
3.0749478908899852e-33
0
ARC
5
128
100
AcDbEntity
8
0
100
AcDbCircle
10
-2.8537933784001357
20
0.77133946261249398
30
4.377441414954147e-49
40
0.029999999999999912
210
1.6148820691444486e-31
220
-1.8907321409664129e-33
230
1
100
AcDbArc
50
20.917602426479942
51
341.97516115751927
0
LINE
5
129
100
AcDbEntity
8
0
100
AcDbLine
10
-2.825770533407705
20
0.78205021228421168
30
-4.5051078318108854e-33
11
-2.6684374999999969
21
0.78602279086800575
31
-3.0848461261448429e-33
0
LINE
5
130
100
AcDbEntity
8
0
100
AcDbLine
10
-2.6684374999999969
20
0.78602279086800575
30
-3.0848461261448429e-33
11
-2.6684375
21
0.8500000000000012
31
1.6378365417182284e-46
0
ARC
5
131
100
AcDbEntity
8
0
100
AcDbCircle
10
-3.1249999999713878
20
0.8500000000000969
30
0
40
0.45656249997138793
210
-3.5873216522448359e-46
220
-3.3631163143795535e-44
230
1
100
AcDbArc
50
0
51
0.73529805650645386
0
ARC
5
132
100
AcDbEntity
8
0
100
AcDbCircle
10
-2.6812391423580286
20
0.84798000226336034
30
-1.0600142749442811e-46
40
0.015000022228139129
210
2.2158558264621782e-33
220
-3.5896715936049083e-33
230
1
100
AcDbArc
50
31.686473664702802
51
134.63863271644044
0
ARC
5
133
100
AcDbEntity
8
0
100
AcDbCircle
10
-2.7576504799983463
20
0.92536133063149595
30
0
40
0.093750000000000083
210
-1.0495066778186985e-31
220
-2.9802897825901423e-32
230
1
100
AcDbArc
50
68.547988015529938
51
314.63863271643851
0
ARC
5
134
100
AcDbEntity
8
0
100
AcDbCircle
10
-2.717878231194399
20
1.0265775878487879
30
-1.2176021658826304e-46
40
0.015000000000000589
210
4.1094226215642185e-32
220
4.2786828837558231e-31
230
1
100
AcDbArc
50
248.54798801552965
51
351.5001470685101
0
ARC
5
135
100
AcDbEntity
8
0
100
AcDbCircle
10
-3.1249999999713878
20
0.8500000000000969
30
0
40
0.45656248091060447
210
-1.395815066641315e-32
220
2.3904966292893859e-32
230
1
100
AcDbArc
50
22.451324111483661
51
33.524892378613195
0
LINE
5
136
100
AcDbEntity
8
0
100
AcDbLine
10
-2.7443885199582145
20
1.1021591118011911
30
4.1448342915555343e-32
11
-2.8950719559151281
21
0.99750965142830172
31
3.6201739685513577e-33
0
ARC
5
137
100
AcDbEntity
8
0
100
AcDbCircle
10
-2.9240074746654554
20
0.98958906087898524
30
2.0877028286704394e-48
40
0.030000000000000349
210
1.8057311733764458e-32
220
-3.6403732158805673e-32
230
1
100
AcDbArc
50
-305.74884826768306
51
15.308710463356583
0
LINE
5
138
100
AcDbEntity
8
0
100
AcDbLine
10
-2.9064804741160173
20
1.0139366326622252
30
5.6985196923529802e-34
11
-2.7557970381596868
21
1.1185860930347187
31
-3.6201739682393588e-33
0
ARC
5
139
100
AcDbEntity
8
0
100
AcDbCircle
10
-3.1249999999713878
20
0.8500000000000969
30
0
40
0.45656249997359039
210
1.0107175120901456e-31
220
-1.254562943036692e-31
230
1
100
AcDbArc
50
36.034969821137224
51
47.108539527368741
0
ARC
5
140
100
AcDbEntity
8
0
100
AcDbCircle
10
-2.8173616158179517
20
1.169822456609789
30
-2.2089242832384004e-47
40
0.015000022228140267
210
1.6679794796982481e-32
220
9.3978572571315409e-31
230
1
100
AcDbArc
50
78.05971524814197
51
181.01187418698754
0
ARC
5
141
100
AcDbEntity
8
0
100
AcDbCircle
10
-2.9260946569932282
20
1.1679019731353542
30
0
40
0.093749999999999736
210
-2.4570301779804689e-31
220
-9.8750282009686296e-32
230
1
100
AcDbArc
50
-245.07877052057961
51
1.0118741869868222
0
ARC
5
142
100
AcDbEntity
8
0
100
AcDbCircle
10
-2.9719188474554912
20
1.2665260374831502
30
5.1855844454072199e-47
40
0.015000000000000123
210
-4.9046979787502218e-32
220
-1.1911353942968994e-31
230
1
100
AcDbArc
50
-65.078770520580463
51
37.873388534099355
0
ARC
5
143
100
AcDbEntity
8
0
100
AcDbCircle
10
-3.1249999999713878
20
0.8500000000000969
30
0
40
0.45656248092675461
210
1.048704748994954e-31
220
-4.4673729719574676e-32
230
1
100
AcDbArc
50
68.824565577321209
51
79.898133843952209
0
LINE
5
144
100
AcDbEntity
8
0
100
AcDbLine
10
-3.0449194890800686
20
1.2994846250678158
30
-5.1760497470727192e-33
11
-3.0731342002688864
21
1.1182087648445576
31
3.7672538406735404e-35
0
ARC
5
145
100
AcDbEntity
8
0
100
AcDbCircle
10
-3.0873651663005068
20
1.0917989256589942
30
7.5763409104975612e-49
40
0.029999999999999846
210
1.9795789023100144e-32
220
-1.8218540215184884e-32
230
1
100
AcDbArc
50
-259.37560680389822
51
61.68195192714245
0
LINE
5
146
100
AcDbEntity
8
0
100
AcDbLine
10
-3.0928962606120409
20
1.1212846339889107
30
6.4667893903979565e-34
11
-3.0646815494234203
21
1.3025604942109539
31
-3.7672537457445344e-35
0
ARC
5
147
100
AcDbEntity
8
0
100
AcDbCircle
10
-3.1249999999713878
20
0.8500000000000969
30
0
40
0.45656249998974141
210
9.3805302752079777e-32
220
-1.2419373872948545e-32
230
1
100
AcDbArc
50
82.408211286387413
51
93.481780995407036
0
ARC
5
148
100
AcDbEntity
8
0
100
AcDbCircle
10
-3.1442459293460323
20
1.2933479146038458
30
-5.1451772938845667e-47
40
0.015000022228138213
210
-7.8779715674804917e-32
220
3.6798347196354517e-31
230
1
100
AcDbArc
50
124.43295679961184
51
227.38511565572813
0
ARC
5
149
100
AcDbEntity
8
0
100
AcDbCircle
10
-3.2178769841641732
20
1.2133164816142519
30
0
40
0.093749999999999736
210
-6.6192972713674047e-32
220
-3.390558319064932e-32
230
1
100
AcDbArc
50
-198.70552905679909
51
47.385115655728868
0
ARC
5
150
100
AcDbEntity
8
0
100
AcDbCircle
10
-3.3208827367479143
20
1.2481930845832492
30
-4.3100961624163907e-47
40
0.01499999999999989
210
2.9611451300213937e-31
220
-1.3538906107510229e-31
230
1
100
AcDbArc
50
-18.705529056797698
51
84.246629997813102
0
ARC
5
151
100
AcDbEntity
8
0
100
AcDbCircle
10
-3.1249999999713878
20
0.8500000000000969
30
0
40
0.45656248094927093
210
-5.7524373964828653e-32
220
-2.7655803902426609e-32
230
1
100
AcDbArc
50
115.19780704101571
51
126.27137530710633
0
LINE
5
152
100
AcDbEntity
8
0
100
AcDbLine
10
-3.395107153855963
20
1.2180916215263382
30
-5.5330354211868428e-32
11
-3.2833576309413948
21
1.072595739949858
31
-3.4830471803146325e-33
0
ARC
5
153
100
AcDbEntity
8
0
100
AcDbCircle
10
-3.2740596406509415
20
1.0440729880391628
30
1.5300841376578186e-46
40
0.029999999999999312
210
2.4449403457539631e-31
220
2.6518823854904737e-32
230
1
100
AcDbArc
50
-213.00236534011461
51
108.05519339092398
0
LINE
5
154
100
AcDbEntity
8
0
100
AcDbLine
10
-3.2992190831383077
20
1.0604131977601203
30
5.7180104580616454e-33
11
-3.4109686060522786
21
1.2059090793358107
31
3.4830471809314248e-33
0
ARC
5
155
100
AcDbEntity
8
0
100
AcDbCircle
10
-3.1249999999713878
20
0.8500000000000969
30
0
40
0.4565625000122579
210
-7.7277558376429871e-32
220
-7.1877915783776122e-32
230
1
100
AcDbArc
50
128.78145274941772
51
139.85502245639606
0
ARC
5
156
100
AcDbEntity
8
0
100
AcDbCircle
10
-3.4591961374901965
20
1.1419601357443505
30
5.7108774152017178e-47
40
0.015000022228138241
210
1.9280112126224885e-30
220
-1.1134448152001967e-31
230
1
100
AcDbArc
50
170.8061982225808
51
273.75835711721027
0
ARC
5
157
100
AcDbEntity
8
0
100
AcDbCircle
10
-3.4520677190350781
20
1.0334440164333067
30
0
40
0.093750000000000028
210
1.6972589352293262e-32
220
-1.0527502648871574e-31
230
1
100
AcDbArc
50
-152.33228759311996
51
93.758357117205861
0
ARC
5
158
100
AcDbEntity
8
0
100
AcDbCircle
10
-3.5483827476111203
20
0.98294671184785065
30
-8.6538649511016596e-47
40
0.015000000000000418
210
2.2144400907575161e-31
220
3.3275028443848841e-32
230
1
100
AcDbArc
50
27.667712406880543
51
130.61987145965503
0
ARC
5
159
100
AcDbEntity
8
0
100
AcDbCircle
10
-3.1249999999713878
20
0.8500000000000969
30
0
40
0.45656248096417013
210
-1.3343194232620176e-32
220
-5.0522270424653381e-32
230
1
100
AcDbArc
50
161.57104850261663
51
172.1478963992578
0
LINE
5
160
100
AcDbEntity
8
0
100
AcDbLine
10
-3.5772817763376019
20
0.91237396250103631
30
-2.6033981978033761e-32
11
-3.4036424261733629
21
0.88418676651841477
31
-1.6933552018151062e-32
0
ARC
5
161
100
AcDbEntity
8
0
100
AcDbCircle
10
-3.3773259595503946
20
0.86978386457183876
30
-7.0241098396879618e-47
40
0.030000000000000578
210
6.1953371355552676e-32
220
6.8169390393666526e-32
230
1
100
AcDbArc
50
-169.74927862501448
51
151.30828010602585
0
LINE
5
162
100
AcDbEntity
8
0
100
AcDbLine
10
-3.406847113266199
20
0.86444518652499236
30
2.1928694269610843e-33
11
-3.5795814571066447
21
0.89248547116181809
31
1.7047633813237334e-32
0
ARC
5
163
100
AcDbEntity
8
0
100
AcDbCircle
10
-3.1249999999713878
20
0.8500000000000969
30
0
40
0.45656250002715604
210
3.8010537617130161e-32
220
5.4430787026446125e-33
230
1
100
AcDbArc
50
174.66061040429031
51
180
0
LINE
5
164
100
AcDbEntity
8
0
100
AcDbLine
10
-3.5815624999985434
20
0.84999999999999343
30
-3.2467779513144406e-32
11
-3.5815624999996647
21
0.8241705609289709
31
1.3739724546550971e-43
0
ARC
5
165
100
AcDbEntity
8
0
100
AcDbCircle
10
-3.5665624999996646
20
0.82417056092831908
30
3.616440061277503e-47
40
0.015000000000000008
210
6.8340093449030856e-42
220
-5.3469004614534084e-32
230
1
100
AcDbArc
50
180
51
307.73925345751627
0
ARC
5
166
100
AcDbEntity
8
0
100
AcDbCircle
10
-3.5
20
0.73817058363881882
30
0
40
0.093750000000000014
210
-1.1056528539420295e-31
220
-1.0739018318190123e-32
230
1
100
AcDbArc
50
-127.73925345774413
51
127.73925345751671
0
ARC
5
167
100
AcDbEntity
8
0
100
AcDbCircle
10
-3.5665625000000061
20
0.65217060634958246
30
3.232572121812293e-48
40
0.014999999999999751
210
4.1470074136998301e-31
220
2.809952954937248e-31
230
1
100
AcDbArc
50
52.260746542256705
51
180
0
LINE
5
168
100
AcDbEntity
8
0
100
AcDbLine
10
-3.5815625000000058
20
0.65217060634958179
30
2.9582283945791944e-33
11
-3.5815625000000031
21
0.59641450582031486
31
-6.8961538598662252e-47
0
LINE
5
169
100
AcDbEntity
8
0
100
AcDbLine
10
-3.5815625000000031
20
0.59641450582031486
30
-6.8961538598662252e-47
11
-3.4282842712474637
21
0.59641450582030964
31
-1.8488927466076112e-33
0
SPLINE
5
170
100
AcDbEntity
8
0
100
AcDbSpline
70
0
71
3
72
27
73
23
74
0
42
0.000000001
43
0.0000000001
44
0.0000000001
40
0.22129420422033219
40
0.22129420422033219
40
0.22129420422033219
40
0.22129420422033219
40
0.22220133051702756
40
0.22220133051702756
40
0.24072345370348591
40
0.24072345370348591
40
0.25924070431976015
40
0.25924070431976015
40
0.27775689850788055
40
0.27775689850788055
40
0.2962683113743837
40
0.2962683113743837
40
0.2962683113743837
40
0.31477734418808734
40
0.31477734418808734
40
0.33329115672340409
40
0.33329115672340409
40
0.35181078737065608
40
0.35181078737065608
40
0.37033529220210615
40
0.37033529220210615
40
0.37124241849913681
40
0.37124241849913681
40
0.37124241849913681
40
0.37124241849913681
10
-3.265685052462644
20
0.098421905801081219
30
0
10
-3.2658060483369256
20
0.09842411745200301
30
0
10
-3.2659261327388145
20
0.098425196850393956
30
0
10
-3.2684759030121935
20
0.098425196850394039
30
0
10
-3.271336781441696
20
0.097856422728478096
30
0
10
-3.2758278723456336
20
0.09599696625051525
30
0
10
-3.2782529302347982
20
0.094377476273060576
30
0
10
-3.2816903634358074
20
0.090941786348197481
30
0
10
-3.2833109785557957
20
0.088517680342038663
30
0
10
-3.2851712311593313
20
0.084028590625682603
30
0
10
-3.2857402307574817
20
0.081169476754134245
30
0
10
-3.2857402307574817
20
0.078740157480314932
30
0
10
-3.2857402307574817
20
0.0763111505493827
30
0
10
-3.2851713757141581
20
0.07345239007231763
30
0
10
-3.2833115864762918
20
0.068963784771969072
30
0
10
-3.2816913613758278
20
0.066539869192019582
30
0
10
-3.2782542714032297
20
0.063103836199938812
30
0
10
-3.275829023093217
20
0.061483956486699978
30
0
10
-3.2713374476620731
20
0.059624036757472208
30
0
10
-3.2684762155640299
20
0.059055118110235831
30
0
10
-3.2659261327387696
20
0.059055118110235921
30
0
10
-3.2658060483368359
20
0.059056197508625265
30
0
10
-3.2656850524625098
20
0.0590584091595487
30
0
0
SPLINE
5
171
100
AcDbEntity
8
0
100
AcDbSpline
70
0
71
3
72
26
73
22
74
0
42
0.000000001
43
0.0000000001
44
0.0000000001
40
-0.22313321948083092
40
-0.22313321948083092
40
-0.22313321948083092
40
-0.22313321948083092
40
-0.2222258919702173
40
-0.2222258919702173
40
-0.20369592908902048
40
-0.20369592908902048
40
-0.185172840614833
40
-0.185172840614833
40
-0.16665816903277431
40
-0.16665816903277431
40
-0.14815050206276939
40
-0.14815050206276939
40
-0.12964283509276489
40
-0.12964283509276489
40
-0.1111281635107062
40
-0.1111281635107062
40
-0.092605075036518589
40
-0.092605075036518589
40
-0.074075112155321796
40
-0.074075112155321796
40
-0.073167786327720932
40
-0.073167786327720932
40
-0.073167786327720932
40
-0.073167786327720932
10
-3.2656850524625796
20
0.059058409163400029
30
0
10
-3.2655640297867157
20
0.059056197507274338
30
0
10
-3.2654439187763176
20
0.059055118110235921
30
0
10
-3.2628930932655815
20
0.059055118110235831
30
0
10
-3.2600310006042825
20
0.059624116206360898
30
0
10
-3.2555382564041837
20
0.061484271721557467
30
0
10
-3.2531124261554898
20
0.063104260556948913
30
0
10
-3.2496746921977189
20
0.066540450650406258
30
0
10
-3.2480541938958818
20
0.068964346324386722
30
0
10
-3.2461942111226607
20
0.073452799438176355
30
0
10
-3.2456253017588454
20
0.076311329793962671
30
0
10
-3.2456253017588454
20
0.081168985166667318
30
0
10
-3.2461942111226607
20
0.084027515522453564
30
0
10
-3.2480541938958818
20
0.08851596863624317
30
0
10
-3.2496746921977189
20
0.09093986431022362
30
0
10
-3.2531124261554898
20
0.094376054403680978
30
0
10
-3.2555382564041837
20
0.095996043239072487
30
0
10
-3.2600310006042825
20
0.097856198754269055
30
0
10
-3.2628930932655815
20
0.098425196850394039
30
0
10
-3.2654439185554498
20
0.098425196850393956
30
0
10
-3.265564029579803
20
0.09842411745713768
30
0
10
-3.2656850524627146
20
0.098421905797227413
30
0
0
SPLINE
5
172
100
AcDbEntity
8
0
100
AcDbSpline
70
0
71
3
72
27
73
23
74
0
42
0.000000001
43
0.0000000001
44
0.0000000001
40
0.22131275134095391
40
0.22131275134095391
40
0.22131275134095391
40
0.22131275134095391
40
0.22219867807649324
40
0.22219867807649324
40
0.24072033193401965
40
0.24072033193401965
40
0.25923734075399779
40
0.25923734075399779
40
0.2777533422545912
40
0.2777533422545912
40
0.29626478371128173
40
0.29626478371128173
40
0.29626478371128173
40
0.31477395552541287
40
0.31477395552541287
40
0.33328768592835478
40
0.33328768592835478
40
0.35180696437119485
40
0.35180696437119485
40
0.37033088931911895
40
0.37033088931911895
40
0.37121681605494655
40
0.37121681605494655
40
0.37121681605494655
40
0.37121681605494655
10
-3.3444730373205376
20
0.098422058864156808
30
0
10
-3.3445911635982037
20
0.098424167291724665
30
0
10
-3.3447084177861122
20
0.098425196850393956
30
0
10
-3.3472553443731288
20
0.098425196850393956
30
0
10
-3.3501161477314394
20
0.097856424164164374
30
0
10
-3.3546071390624403
20
0.095996971148189808
30
0
10
-3.3570321464014734
20
0.094377474040953688
30
0
10
-3.3604694988949961
20
0.090941784025453762
30
0
10
-3.3620900690032172
20
0.088517684428430193
30
0
10
-3.3639502813264697
20
0.084028601331189362
30
0
10
-3.3645192690517205
20
0.081169480506127337
30
0
10
-3.3645192690517205
20
0.078740157480314932
30
0
10
-3.3645192690517205
20
0.076311132307856785
30
0
10
-3.3639504191726597
20
0.073452348484193367
30
0
10
-3.3620906487102733
20
0.068963727326314367
30
0
10
-3.3604704505166363
20
0.066539809318767781
30
0
10
-3.3570334253205569
20
0.063103792152391272
30
0
10
-3.3546082363969036
20
0.061483923388602729
30
0
10
-3.3501167830254097
20
0.059624028615819294
30
0
10
-3.3472556424164881
20
0.059055118110235921
30
0
10
-3.3447084177860744
20
0.059055118110235921
30
0
10
-3.3445911635981265
20
0.059056147668903852
30
0
10
-3.3444730373204217
20
0.059058256096473111
30
0
0
SPLINE
5
173
100
AcDbEntity
8
0
100
AcDbSpline
70
0
71
3
72
26
73
22
74
0
42
0.000000001
43
0.0000000001
44
0.0000000001
40
-0.22310820819840457
40
-0.22310820819840457
40
-0.22310820819840457
40
-0.22310820819840457
40
-0.22222209411891056
40
-0.22222209411891056
40
-0.2036929669301564
40
-0.2036929669301564
40
-0.18517039519661738
40
-0.18517039519661738
40
-0.16665584750430473
40
-0.16665584750430473
40
-0.14814797655432924
40
-0.14814797655432924
40
-0.12964010560435396
40
-0.12964010560435396
40
-0.11112555791204132
40
-0.11112555791204132
40
-0.092602986178502517
40
-0.092602986178502517
40
-0.074073858989748304
40
-0.074073858989748304
40
-0.073187746443894308
40
-0.073187746443894308
40
-0.073187746443894308
40
-0.073187746443894308
10
-3.3444730373204825
20
0.0590582560999032
30
0
10
-3.3443548860972339
20
0.059056147667713381
30
0
10
-3.3442376071394602
20
0.059055118110235921
30
0
10
-3.3416896752144933
20
0.059055118110235921
30
0
10
-3.3388277143655758
20
0.059624104293675262
30
0
10
-3.3343351473489271
20
0.061484223791189577
30
0
10
-3.3319094041587087
20
0.063104196460735007
30
0
10
-3.3284717657541658
20
0.066540363227170204
30
0
10
-3.326851307508508
20
0.0689642622117497
30
0
10
-3.3249913528718724
20
0.07345273836223852
30
0
10
-3.3244224513168095
20
0.07631130302493766
30
0
10
-3.3244224513168095
20
0.081169011935692356
30
0
10
-3.3249913528718724
20
0.084027576598391468
30
0
10
-3.326851307508508
20
0.088516052748880261
30
0
10
-3.3284717657541658
20
0.090939951733459756
30
0
10
-3.3319094041587087
20
0.09437611849989494
30
0
10
-3.3343351473489271
20
0.095996091169440204
30
0
10
-3.3388277143655758
20
0.097856210666954532
30
0
10
-3.3416896752144933
20
0.098425196850393956
30
0
10
-3.3442376069381945
20
0.098425196850393956
30
0
10
-3.3443548859083689
20
0.098424167296287571
30
0
10
-3.3444730373205993
20
0.098422058860724623
30
0
0
SPLINE
5
174
100
AcDbEntity
8
0
100
AcDbSpline
70
0
71
3
72
27
73
23
74
0
42
0.000000001
43
0.0000000001
44
0.0000000001
40
0.22125452850368901
40
0.22125452850368901
40
0.22125452850368901
40
0.22125452850368901
40
0.22220725380003448
40
0.22220725380003448
40
0.24073305330890107
40
0.24073305330890107
40
0.25925347002840743
40
0.25925347002840743
40
0.27776746577245792
40
0.27776746577245792
40
0.29627618836903069
40
0.29627618836903069
40
0.29627618836903069
40
0.31478491096560346
40
0.31478491096560346
40
0.3332989067096539
40
0.3332989067096539
40
0.35181932342916022
40
0.35181932342916022
40
0.37034512293802685
40
0.37034512293802685
40
0.37129784823437056
40
0.37129784823437056
40
0.37129784823437056
40
0.37129784823437056
10
-3.1081018108700609
20
0.019681406581177393
30
0
10
-3.1082289854128904
20
0.019683848783353993
30
0
10
-3.1083551613208424
20
0.019685039370078667
30
0
10
-3.1109113981719201
20
0.019685039370078667
30
0
10
-3.1137728345342932
20
0.019116102551371233
30
0
10
-3.1182646824436282
20
0.017256127106597453
30
0
10
-3.1206900632978387
20
0.015636222959845524
30
0
10
-3.124127297827358
20
0.012200154651232439
30
0
10
-3.1257475829625418
20
0.0097762444972422317
30
0
10
-3.1276074140866985
20
0.0052876745940233019
30
0
10
-3.128176280648868
20
0.0024289662200226696
30
0
10
-3.128176280648868
20
8.1147902648789254e-32
30
0
10
-3.128176280648868
20
-0.0024289662200226696
30
0
10
-3.1276074140866985
20
-0.0052876745940233019
30
0
10
-3.1257475829625418
20
-0.0097762444972422317
30
0
10
-3.124127297827358
20
-0.012200154651232439
30
0
10
-3.1206900632978387
20
-0.015636222959845524
30
0
10
-3.1182646824436282
20
-0.017256127106597453
30
0
10
-3.1137728345342932
20
-0.019116102551371233
30
0
10
-3.1109113981719201
20
-0.019685039370078667
30
0
10
-3.1083551613208424
20
-0.019685039370078667
30
0
10
-3.1082289854128908
20
-0.019683848783353979
30
0
10
-3.1081018108700618
20
-0.019681406581177393
30
0
0
SPLINE
5
175
100
AcDbEntity
8
0
100
AcDbSpline
70
0
71
3
72
26
73
22
74
0
42
0.000000001
43
0.0000000001
44
0.0000000001
40
-0.22318733214971764
40
-0.22318733214971764
40
-0.22318733214971764
40
-0.22318733214971764
40
-0.22223437350634934
40
-0.22223437350634934
40
-0.20370254425783257
40
-0.20370254425783257
40
-0.18517830136706043
40
-0.18517830136706043
40
-0.16666335287237294
40
-0.16666335287237294
40
-0.14815614158117046
40
-0.14815614158117046
40
-0.12964893028996799
40
-0.12964893028996799
40
-0.11113398179528053
40
-0.11113398179528053
40
-0.092609738904508382
40
-0.092609738904508382
40
-0.074077909655991633
40
-0.074077909655991633
40
-0.073124951012624548
40
-0.073124951012624548
40
-0.073124951012624548
40
-0.073124951012624548
10
-3.1081018108701559
20
-0.019681406576281257
30
0
10
-3.1079746052228043
20
-0.01968384878511064
30
0
10
-3.1078483984450442
20
-0.019685039370078667
30
0
10
-3.1052913396665822
20
-0.019685039370078667
30
0
10
-3.1024289526277582
20
-0.019116014662867421
30
0
10
-3.0979358126684375
20
-0.017255778710016347
30
0
10
-3.0955097879312254
20
-0.015635753757566106
30
0
10
-3.09207184048363
20
-0.012199511548338792
30
0
10
-3.0904512526723029
20
-0.0097756232610352739
30
0
10
-3.0885912070180805
20
-0.0052872216000245074
30
0
10
-3.0880222802002586
20
-0.0024287678859845787
30
0
10
-3.0880222802002586
20
0.0024287678859845787
30
0
10
-3.0885912070180805
20
0.0052872216000245074
30
0
10
-3.0904512526723029
20
0.0097756232610352739
30
0
10
-3.09207184048363
20
0.012199511548338792
30
0
10
-3.0955097879312254
20
0.015635753757566106
30
0
10
-3.0979358126684375
20
0.017255778710016347
30
0
10
-3.1024289526277582
20
0.019116014662867421
30
0
10
-3.1052913396665822
20
0.019685039370078667
30
0
10
-3.1078483984450442
20
0.019685039370078667
30
0
10
-3.1079746052228039
20
0.01968384878511064
30
0
10
-3.108101810870155
20
0.019681406576281268
30
0
0
SPLINE
5
176
100
AcDbEntity
8
0
100
AcDbSpline
70
0
71
3
72
27
73
23
74
0
42
0.000000001
43
0.0000000001
44
0.0000000001
40
0.22127481597801635
40
0.22127481597801635
40
0.22127481597801635
40
0.22127481597801635
40
0.22220418226278274
40
0.22220418226278274
40
0.24072931046115958
40
0.24072931046115958
40
0.25924931963698411
40
0.25924931963698411
40
0.27776322041231577
40
0.27776322041231577
40
0.29627210384053038
40
0.29627210384053038
40
0.29627210384053038
40
0.31478098726874498
40
0.31478098726874498
40
0.33329488804407664
40
0.33329488804407664
40
0.35181489721990117
40
0.35181489721990117
40
0.37034002541827804
40
0.37034002541827804
40
0.37126939170303919
40
0.37126939170303919
40
0.37126939170303919
40
0.37126939170303919
10
-3.1868947035713973
20
0.019681583778937514
30
0
10
-3.1870187118890287
20
0.019683906421615088
30
0
10
-3.1871417666371049
20
0.019685039370079017
30
0
10
-3.1896948499026094
20
0.019685039370079017
30
0
10
-3.1925561803505511
20
0.019116111972543971
30
0
10
-3.1970478869821997
20
0.017256165416557095
30
0
10
-3.1994731991177803
20
0.015636273936789759
30
0
10
-3.2029103587035559
20
0.012200223937506124
30
0
10
-3.2045306127163933
20
0.0097763109690548848
30
0
10
-3.2063904221274231
20
0.0052877227130966511
30
0
10
-3.2069592827187843
20
0.0024289873265373493
30
0
10
-3.2069592827187843
20
8.1147902648789254e-32
30
0
10
-3.2069592827187843
20
-0.0024289873265373493
30
0
10
-3.2063904221274231
20
-0.0052877227130966511
30
0
10
-3.2045306127163933
20
-0.0097763109690548848
30
0
10
-3.2029103587035559
20
-0.012200223937506124
30
0
10
-3.1994731991177803
20
-0.015636273936789759
30
0
10
-3.1970478869821997
20
-0.017256165416557095
30
0
10
-3.1925561803505511
20
-0.019116111972543971
30
0
10
-3.1896948499026094
20
-0.019685039370079017
30
0
10
-3.1871417666371054
20
-0.019685039370079017
30
0
10
-3.1870187118890296
20
-0.01968390642161506
30
0
10
-3.1868947035713986
20
-0.019681583778937514
30
0
0
SPLINE
5
177
100
AcDbEntity
8
0
100
AcDbSpline
70
0
71
3
72
26
73
22
74
0
42
0.000000001
43
0.0000000001
44
0.0000000001
40
-0.22315955804035223
40
-0.22315955804035223
40
-0.22315955804035223
40
-0.22315955804035223
40
-0.22222997526828553
40
-0.22222997526828553
40
-0.20369911385541017
40
-0.20369911385541017
40
-0.18517546966923992
40
-0.18517546966923992
40
-0.16666066481075364
40
-0.16666066481075364
40
-0.14815321719836977
40
-0.14815321719836977
40
-0.12964576958598589
40
-0.12964576958598589
40
-0.11113096472749961
40
-0.11113096472749961
40
-0.092607320541329349
40
-0.092607320541329349
40
-0.074076459128453981
40
-0.074076459128453981
40
-0.073146876356387294
40
-0.073146876356387294
40
-0.073146876356387294
40
-0.073146876356387294
10
-3.1868947035714799
20
-0.019681583774601285
30
0
10
-3.1867706664075262
20
-0.019683906423152975
30
0
10
-3.1866475830257528
20
-0.019685039370079017
30
0
10
-3.1840937189594869
20
-0.019685039370079017
30
0
10
-3.1812314845747447
20
-0.019116028463546472
30
0
10
-3.1767385498517622
20
-0.017255834222740858
30
0
10
-3.1743126259798311
20
-0.015635828001685167
30
0
10
-3.1708747892560196
20
-0.012199612821186217
30
0
10
-3.1692542478700161
20
-0.0097757207045749122
30
0
10
-3.1673942348310762
20
-0.0052872923611214174
30
0
10
-3.1668253170667899
20
-0.002428798899262976
30
0
10
-3.1668253170667899
20
0.002428798899262976
30
0
10
-3.1673942348310762
20
0.0052872923611214174
30
0
10
-3.1692542478700161
20
0.0097757207045749122
30
0
10
-3.1708747892560196
20
0.012199612821186217
30
0
10
-3.1743126259798311
20
0.015635828001685167
30
0
10
-3.1767385498517622
20
0.017255834222740858
30
0
10
-3.1812314845747447
20
0.019116028463546472
30
0
10
-3.1840937189594869
20
0.019685039370079017
30
0
10
-3.1866475830257528
20
0.019685039370079017
30
0
10
-3.1867706664075257
20
0.019683906423152979
30
0
10
-3.1868947035714781
20
0.019681583774601313
30
0
0
SPLINE
5
178
100
AcDbEntity
8
0
100
AcDbSpline
70
0
71
3
72
27
73
23
74
0
42
0.000000001
43
0.0000000001
44
0.0000000001
40
0.22129420421999679
40
0.22129420421999679
40
0.22129420421999679
40
0.22129420421999679
40
0.22220133051702745
40
0.22220133051702745
40
0.24072583534847752
40
0.24072583534847752
40
0.25924546599572951
40
0.25924546599572951
40
0.27775927853104643
40
0.27775927853104643
40
0.2962683113447499
40
0.2962683113447499
40
0.2962683113447499
40
0.31477734415845338
40
0.31477734415845338
40
0.3332911566937703
40
0.3332911566937703
40
0.35181078734102222
40
0.35181078734102222
40
0.3703352921724723
40
0.3703352921724723
40
0.37124241846950817
40
0.37124241846950817
40
0.37124241846950817
40
0.37124241846950817
10
-3.2656850524625098
20
0.019681748320766249
30
0
10
-3.2658060483368367
20
0.019683959971689709
30
0
10
-3.2659261327387696
20
0.019685039370079014
30
0
10
-3.2684762155640299
20
0.019685039370079104
30
0
10
-3.2713374476620731
20
0.01911612072284273
30
0
10
-3.275829023093217
20
0.017256200993614957
30
0
10
-3.2782542714032297
20
0.015636321280376134
30
0
10
-3.2816913613758278
20
0.012200288288295336
30
0
10
-3.2833115864762918
20
0.0097763727083458041
30
0
10
-3.2851713757141581
20
0.0052877674079972277
30
0
10
-3.2857402307574817
20
0.0024290069309322124
30
0
10
-3.2857402307574817
20
8.1147902648789254e-32
30
0
10
-3.2857402307574817
20
-0.0024290069309322124
30
0
10
-3.2851713757141581
20
-0.0052877674079972277
30
0
10
-3.2833115864762918
20
-0.0097763727083458041
30
0
10
-3.2816913613758278
20
-0.012200288288295336
30
0
10
-3.2782542714032297
20
-0.015636321280376134
30
0
10
-3.275829023093217
20
-0.017256200993614957
30
0
10
-3.2713374476620731
20
-0.01911612072284273
30
0
10
-3.2684762155640299
20
-0.019685039370079104
30
0
10
-3.2659261327387696
20
-0.019685039370079014
30
0
10
-3.2658060483368354
20
-0.019683959971689716
30
0
10
-3.2656850524625085
20
-0.019681748320766256
30
0
0
SPLINE
5
179
100
AcDbEntity
8
0
100
AcDbSpline
70
0
71
3
72
26
73
22
74
0
42
0.000000001
43
0.0000000001
44
0.0000000001
40
-0.22313321942012834
40
-0.22313321942012834
40
-0.22313321942012834
40
-0.22313321942012834
40
-0.22222589190951769
40
-0.22222589190951769
40
-0.2036959290283209
40
-0.2036959290283209
40
-0.1851728405541333
40
-0.1851728405541333
40
-0.16665816897207461
40
-0.16665816897207461
40
-0.14815050200206992
40
-0.14815050200206992
40
-0.12964283503206522
40
-0.12964283503206522
40
-0.11112816345000653
40
-0.11112816345000653
40
-0.092605074975818935
40
-0.092605074975818935
40
-0.074075112094622142
40
-0.074075112094622142
40
-0.073167784584008147
40
-0.073167784584008147
40
-0.073167784584008147
40
-0.073167784584008147
10
-3.2656850524625791
20
-0.019681748316914934
30
0
10
-3.2655640297867152
20
-0.019683959973040621
30
0
10
-3.2654439187763176
20
-0.019685039370079014
30
0
10
-3.2628930932655815
20
-0.019685039370079104
30
0
10
-3.2600310006042825
20
-0.01911604127395412
30
0
10
-3.2555382564041837
20
-0.017255885758757552
30
0
10
-3.2531124261554898
20
-0.015635896923366036
30
0
10
-3.2496746921977189
20
-0.01219970682990869
30
0
10
-3.2480541938958818
20
-0.0097758111559282258
30
0
10
-3.2461942111226607
20
-0.0052873580421386032
30
0
10
-3.2456253017588454
20
-0.0024288276863523232
30
0
10
-3.2456253017588454
20
0.0024288276863523232
30
0
10
-3.2461942111226607
20
0.0052873580421386032
30
0
10
-3.2480541938958818
20
0.0097758111559282258
30
0
10
-3.2496746921977189
20
0.01219970682990869
30
0
10
-3.2531124261554898
20
0.015635896923366036
30
0
10
-3.2555382564041837
20
0.017255885758757552
30
0
10
-3.2600310006042825
20
0.01911604127395412
30
0
10
-3.2628930932655815
20
0.019685039370079104
30
0
10
-3.2654439187763176
20
0.019685039370079014
30
0
10
-3.2655640297867157
20
0.019683959973040618
30
0
10
-3.2656850524625805
20
0.01968174831691491
30
0
0
SPLINE
5
180
100
AcDbEntity
8
0
100
AcDbSpline
70
0
71
3
72
27
73
23
74
0
42
0.000000001
43
0.0000000001
44
0.0000000001
40
0.22131275134066566
40
0.22131275134066566
40
0.22131275134066566
40
0.22131275134066566
40
0.22219867807649324
40
0.22219867807649324
40
0.24072260302441736
40
0.24072260302441736
40
0.25924188146725746
40
0.25924188146725746
40
0.27775561187019937
40
0.27775561187019937
40
0.29626478368433051
40
0.29626478368433051
40
0.29626478368433051
40
0.31477395549846166
40
0.31477395549846166
40
0.33328768590140351
40
0.33328768590140351
40
0.35180696434424363
40
0.35180696434424363
40
0.37033088929216773
40
0.37033088929216773
40
0.37121681602799861
40
0.37121681602799861
40
0.37121681602799861
40
0.37121681602799861
10
-3.3444730373204217
20
0.019681901383841852
30
0
10
-3.3445911635981265
20
0.019684009811411107
30
0
10
-3.3447084177860744
20
0.019685039370079017
30
0
10
-3.3472556424164881
20
0.019685039370079017
30
0
10
-3.3501167830254097
20
0.019116128864495638
30
0
10
-3.3546082363969036
20
0.017256234091712203
30
0
10
-3.3570334253205569
20
0.015636365327923656
30
0
10
-3.3604704505166363
20
0.012200348161547161
30
0
10
-3.3620906487102733
20
0.0097764301540005719
30
0
10
-3.3639504191726597
20
0.005287808996121573
30
0
10
-3.3645192690517205
20
0.0024290251724581519
30
0
10
-3.3645192690517205
20
8.1147902648789254e-32
30
0
10
-3.3645192690517205
20
-0.0024290251724581519
30
0
10
-3.3639504191726597
20
-0.005287808996121573
30
0
10
-3.3620906487102733
20
-0.0097764301540005719
30
0
10
-3.3604704505166363
20
-0.012200348161547161
30
0
10
-3.3570334253205569
20
-0.015636365327923656
30
0
10
-3.3546082363969036
20
-0.017256234091712203
30
0
10
-3.3501167830254097
20
-0.019116128864495638
30
0
10
-3.3472556424164881
20
-0.019685039370079017
30
0
10
-3.3447084177860744
20
-0.019685039370079017
30
0
10
-3.3445911635981265
20
-0.019684009811411111
30
0
10
-3.3444730373204217
20
-0.019681901383841852
30
0
0
SPLINE
5
181
100
AcDbEntity
8
0
100
AcDbSpline
70
0
71
3
72
26
73
22
74
0
42
0.000000001
43
0.0000000001
44
0.0000000001
40
-0.22310820814320001
40
-0.22310820814320001
40
-0.22310820814320001
40
-0.22310820814320001
40
-0.22222209406370519
40
-0.22222209406370519
40
-0.20369296687495103
40
-0.20369296687495103
40
-0.18517039514141201
40
-0.18517039514141201
40
-0.16665584744909956
40
-0.16665584744909956
40
-0.14814797649912406
40
-0.14814797649912406
40
-0.12964010554914857
40
-0.12964010554914857
40
-0.11112555785683612
40
-0.11112555785683612
40
-0.092602986123297093
40
-0.092602986123297093
40
-0.074073858934542935
40
-0.074073858934542935
40
-0.073187744855048725
40
-0.073187744855048725
40
-0.073187744855048725
40
-0.073187744855048725
10
-3.344473037320483
20
-0.019681901380411745
30
0
10
-3.3443548860972347
20
-0.019684009812601568
30
0
10
-3.3442376071394602
20
-0.019685039370079017
30
0
10
-3.3416896752144933
20
-0.019685039370079017
30
0
10
-3.3388277143655758
20
-0.019116053186639677
30
0
10
-3.3343351473489271
20
-0.017255933689125352
30
0
10
-3.3319094041587087
20
-0.015635961019579939
30
0
10
-3.3284717657541658
20
-0.012199794253144746
30
0
10
-3.326851307508508
20
-0.009775895268565293
30
0
10
-3.3249913528718724
20
-0.0052874191180765058
30
0
10
-3.3244224513168095
20
-0.0024288544553773611
30
0
10
-3.3244224513168095
20
0.0024288544553773611
30
0
10
-3.3249913528718724
20
0.0052874191180765058
30
0
10
-3.326851307508508
20
0.009775895268565293
30
0
10
-3.3284717657541658
20
0.012199794253144746
30
0
10
-3.3319094041587087
20
0.015635961019579939
30
0
10
-3.3343351473489271
20
0.017255933689125352
30
0
10
-3.3388277143655758
20
0.019116053186639677
30
0
10
-3.3416896752144933
20
0.019685039370079017
30
0
10
-3.3442376071394602
20
0.019685039370079017
30
0
10
-3.3443548860972347
20
0.019684009812601568
30
0
10
-3.344473037320483
20
0.019681901380411745
30
0
0
ENDSEC
0
SECTION
2
OBJECTS
0
DICTIONARY
5
C
100
AcDbDictionary
3
ACAD_GROUP
350
D
3
ACAD_MLINESTYLE
350
17
0
DICTIONARY
5
D
100
AcDbDictionary
0
DICTIONARY
5
1A
330
C
100
AcDbDictionary
0
DICTIONARY
5
17
100
AcDbDictionary
0
ENDSEC
0
EOF
