0
SECTION
2
HEADER
9
$INSUNITS
70
1
9
$ACADVER
1
AC1014
9
$HANDSEED
5
FFFF
0
ENDSEC
0
SECTION
2
TABLES
0
TABLE
2
VPORT
5
8
100
AcDbSymbolTable
0
ENDTAB
0
TABLE
2
LTYPE
5
5
100
AcDbSymbolTable
0
LTYPE
5
14
100
AcDbSymbolTableRecord
100
AcDbLinetypeTableRecord
2
BYBLOCK
70
0
0
LTYPE
5
15
100
AcDbSymbolTableRecord
100
AcDbLinetypeTableRecord
2
BYLAYER
70
0
0
ENDTAB
0
TABLE
2
LAYER
5
2
100
AcDbSymbolTable
70
2
0
LAYER
5
50
100
AcDbSymbolTableRecord
100
AcDbLayerTableRecord
2
0
70
0
6
CONTINUOUS
0
ENDTAB
0
TABLE
2
STYLE
5
3
100
AcDbSymbolTable
70
1
0
STYLE
5
11
100
AcDbSymbolTableRecord
100
AcDbTextStyleTableRecord
2
STANDARD
70
0
0
ENDTAB
0
TABLE
2
VIEW
5
6
100
AcDbSymbolTable
70
0
0
ENDTAB
0
TABLE
2
UCS
5
7
100
AcDbSymbolTable
70
0
0
ENDTAB
0
TABLE
2
APPID
5
9
100
AcDbSymbolTable
70
2
0
APPID
5
12
100
AcDbSymbolTableRecord
100
AcDbRegAppTableRecord
2
ACAD
70
0
0
ENDTAB
0
TABLE
2
DIMSTYLE
5
A
100
AcDbSymbolTable
70
1
0
ENDTAB
0
TABLE
2
BLOCK_RECORD
5
1
100
AcDbSymbolTable
70
1
0
BLOCK_RECORD
5
1F
100
AcDbSymbolTableRecord
100
AcDbBlockTableRecord
2
*MODEL_SPACE
0
BLOCK_RECORD
5
1B
100
AcDbSymbolTableRecord
100
AcDbBlockTableRecord
2
*PAPER_SPACE
0
ENDTAB
0
ENDSEC
0
SECTION
2
BLOCKS
0
BLOCK
5
20
100
AcDbEntity
100
AcDbBlockBegin
2
*MODEL_SPACE
0
ENDBLK
5
21
100
AcDbEntity
100
AcDbBlockEnd
0
BLOCK
5
1C
100
AcDbEntity
100
AcDbBlockBegin
2
*PAPER_SPACE
0
ENDBLK
5
1D
100
AcDbEntity
100
AcDbBlockEnd
0
ENDSEC
0
SECTION
2
ENTITIES
0
LINE
5
100
100
AcDbEntity
8
0
100
AcDbLine
10
-3.5815624999999485
20
0.55847548636568878
30
4.3709567898628207e-17
11
-3.4282842712474393
21
0.55847548636568622
31
4.3709567898628207e-17
0
ARC
5
101
100
AcDbEntity
8
0
100
AcDbCircle
10
-3.3999999999999679
20
0.54847548636568866
30
4.37095678986282e-17
40
0.029999999999999836
210
-9.25108908054141e-33
220
5.1143971806384664e-31
230
1
100
AcDbArc
50
-160.52877936551943
51
160.52877936551971
0
LINE
5
102
100
AcDbEntity
8
0
100
AcDbLine
10
-3.4282842712474313
20
0.53847548636569376
30
4.3709567898628207e-17
11
-3.5815624999999498
21
0.53847548636568876
31
4.3709567898628207e-17
0
LINE
5
103
100
AcDbEntity
8
0
100
AcDbLine
10
-3.5815624999999498
20
0.53847548636568876
30
4.3709567898628207e-17
11
-3.5815624999999529
21
0.48271938583641932
31
-3.0596697529039742e-16
0
ARC
5
104
100
AcDbEntity
8
0
100
AcDbCircle
10
-3.5665624999999519
20
0.48271938583641866
30
4.3709567898628207e-17
40
0.015000000000000707
210
-2.3311769545933942e-14
220
1.0875549468000962e-27
230
1
100
AcDbArc
50
180
51
307.7392534577283
0
ARC
5
105
100
AcDbEntity
8
0
100
AcDbCircle
10
-3.4999999999999676
20
0.39671940854716514
30
4.3709567898628207e-17
40
0.093750000000000153
210
-1.6430054806107485e-33
220
7.867381118460838e-31
230
1
100
AcDbArc
50
-127.73925345773715
51
127.7392534577296
0
ARC
5
106
100
AcDbEntity
8
0
100
AcDbCircle
10
-3.5665624999999639
20
0.31071943125792056
30
-3.0596697529039742e-16
40
0.015000000000000221
210
-1.4268410670356157e-14
220
-1.8435049669171906e-14
230
1
100
AcDbArc
50
52.260746542261856
51
180
0
LINE
5
107
100
AcDbEntity
8
0
100
AcDbLine
10
-3.5815624999999631
20
0.31071943125791973
30
-3.0596697529039742e-16
11
-3.5815624999999529
21
0.094999999999998266
31
-3.0596697529039727e-16
0
LINE
5
108
100
AcDbEntity
8
0
100
AcDbLine
10
-3.5815624999999529
20
0.094999999999998266
30
-3.0596697529039727e-16
11
-3.4777436023621573
21
0.094999999999999821
31
4.3709567898628207e-17
0
ARC
5
109
100
AcDbEntity
8
0
100
AcDbCircle
10
-3.4728223425196383
20
0.094999999999999835
30
4.3709567898628207e-17
40
0.0049212598425194048
210
0
220
0
230
1
100
AcDbArc
50
-90
51
180
0
LINE
5
110
100
AcDbEntity
8
0
100
AcDbLine
10
-3.4728223425196383
20
0.090078740157480422
30
4.3709567898628207e-17
11
-3.4728223425196383
21
-0.12500000000000031
31
4.3709567898628207e-17
0
LINE
5
111
100
AcDbEntity
8
0
100
AcDbLine
10
-3.4728223425196383
20
-0.12500000000000031
30
4.3709567898628207e-17
11
-2.7771776574800868
21
-0.12500000000000033
31
4.3709567898628207e-17
0
LINE
5
112
100
AcDbEntity
8
0
100
AcDbLine
10
-2.7771776574800868
20
-0.12500000000000033
30
4.3709567898628207e-17
11
-2.7771776574800864
21
0.090078740157480047
31
4.3709567898628207e-17
0
ARC
5
113
100
AcDbEntity
8
0
100
AcDbCircle
10
-2.7771776574800864
20
0.094999999999999807
30
4.3709567898628207e-17
40
0.0049212598425197544
210
-1.1102230246251565e-16
220
-1.3596310734469088e-32
230
1
100
AcDbArc
50
0
51
270
0
LINE
5
114
100
AcDbEntity
8
0
100
AcDbLine
10
-2.7722563976375669
20
0.094999999999999807
30
4.4255937497361064e-17
11
-2.6684374999997718
21
0.094999999999999862
31
5.4636959873285258e-17
0
LINE
5
115
100
AcDbEntity
8
0
100
AcDbLine
10
-2.6684374999997718
20
0.094999999999999862
30
5.4636959873285258e-17
11
-2.6684374999997722
21
0.27079276980061112
31
4.3709567898628182e-17
0
ARC
5
116
100
AcDbEntity
8
0
100
AcDbCircle
10
-2.6834374999997728
20
0.27079276980061107
30
-1.311287036958846e-16
40
0.015000000000000357
210
-1.1655884772967241e-14
220
-6.5853638484374126e-29
230
1
100
AcDbArc
50
0
51
127.73925345774927
0
ARC
5
117
100
AcDbEntity
8
0
100
AcDbCircle
10
-2.7499999999997855
20
0.35679274708984227
30
-1.3112870369588462e-16
40
0.093750000000000167
210
-1.6430054805443179e-33
220
7.8673811184617059e-31
230
1
100
AcDbArc
50
52.260746542250068
51
307.73925345774836
0
ARC
5
118
100
AcDbEntity
8
0
100
AcDbCircle
10
-2.6834374999997705
20
0.44279272437907197
30
-1.3112870369588464e-16
40
0.014999999999999986
210
-3.2259691507747649e-30
220
-7.7593237619625338e-31
230
1
100
AcDbArc
50
232.26074654225064
51
360
0
LINE
5
119
100
AcDbEntity
8
0
100
AcDbLine
10
-2.6684374999997704
20
0.4427927243790718
30
-1.3112870369588464e-16
11
-2.6684374999997709
21
0.49854882490834629
31
4.3709567898628163e-17
0
LINE
5
120
100
AcDbEntity
8
0
100
AcDbLine
10
-2.6684374999997709
20
0.49854882490834629
30
4.3709567898628163e-17
11
-2.8217157287523147
21
0.49854882490834873
31
4.3709567898628207e-17
0
ARC
5
121
100
AcDbEntity
8
0
100
AcDbCircle
10
-2.8499999999997851
20
0.50854882490834652
30
-1.3112870369588462e-16
40
0.029999999999999864
210
3.2351579118316164e-31
220
1.0260539080332313e-30
230
1
100
AcDbArc
50
19.471220634480581
51
340.52877936551874
0
LINE
5
122
100
AcDbEntity
8
0
100
AcDbLine
10
-2.8217157287523218
20
0.51854882490834142
30
-1.3112870369588464e-16
11
-2.6684374999997713
21
0.51854882490834631
31
4.3709567898628207e-17
0
LINE
5
123
100
AcDbEntity
8
0
100
AcDbLine
10
-2.6684374999997713
20
0.51854882490834631
30
4.3709567898628207e-17
11
-2.6684374999997713
21
0.57430492543762002
31
-1.3112870369588462e-16
0
ARC
5
124
100
AcDbEntity
8
0
100
AcDbCircle
10
-2.683437499999771
20
0.57430492543761991
30
-1.311287036958846e-16
40
0.014999999999999658
210
1.2940631647326362e-30
220
2.0761864359707069e-30
230
1
100
AcDbArc
50
0
51
127.73925345775073
0
ARC
5
125
100
AcDbEntity
8
0
100
AcDbCircle
10
-2.7499999999997855
20
0.66030490272685027
30
-1.3112870369588462e-16
40
0.093750000000000028
210
-1.643005480598793e-33
220
7.8673811184609921e-31
230
1
100
AcDbArc
50
52.260746542260698
51
307.73925345774927
0
ARC
5
126
100
AcDbEntity
8
0
100
AcDbCircle
10
-2.6834374999997865
20
0.74630488001609252
30
-1.3112870369588462e-16
40
0.015000000000000221
210
-6.9430192867291188e-17
220
5.373777247853507e-17
230
1
100
AcDbArc
50
232.26074654226173
51
360
0
LINE
5
127
100
AcDbEntity
8
0
100
AcDbLine
10
-2.6684374999997864
20
0.74630488001609041
30
-1.2946336915894685e-16
11
-2.6684374999997784
21
0.80629454575921711
31
-1.3112870369588467e-16
0
LINE
5
128
100
AcDbEntity
8
0
100
AcDbLine
10
-2.6684374999997784
20
0.80629454575921711
30
-1.3112870369588467e-16
11
-2.8296033780258134
21
0.7971405631220706
31
-1.3112870369588462e-16
0
ARC
5
129
100
AcDbEntity
8
0
100
AcDbCircle
10
-2.8584092070135112
20
0.8055205521633505
30
4.37095678986282e-17
40
0.029999999999999884
210
-2.7044340000859557e-31
220
6.4581774535280582e-31
230
1
100
AcDbArc
50
22.722043068178362
51
343.7796017992178
0
LINE
5
130
100
AcDbEntity
8
0
100
AcDbLine
10
-2.8307375203987641
20
0.81710838025558752
30
4.37095678986282e-17
11
-2.6684374999997749
21
0.82632678049600383
31
-1.3112870369588462e-16
0
LINE
5
131
100
AcDbEntity
8
0
100
AcDbLine
10
-2.6684374999997749
20
0.82632678049600383
30
-1.3112870369588462e-16
11
-2.6684374999997718
21
0.84999999999999598
31
4.3709567898628188e-17
0
ARC
5
132
100
AcDbEntity
8
0
100
AcDbCircle
10
-3.1249999999999027
20
0.84999999999999876
30
4.3709567898628207e-17
40
0.45656250000013066
210
4.2515422249930529e-32
220
-4.3565932011799772e-46
230
1
100
AcDbArc
50
0
51
6.5319532393758548
0
ARC
5
133
100
AcDbEntity
8
0
100
AcDbCircle
10
-2.6833042500251287
20
0.89280938705544333
30
4.3709567898628194e-17
40
0.015000022228143855
210
-5.1343986715213728e-31
220
-3.9373611801104959e-31
230
1
100
AcDbArc
50
37.483128845436518
51
140.43528789934882
0
ARC
5
134
100
AcDbEntity
8
0
100
AcDbCircle
10
-2.7671402426919864
20
0.96207762532929109
30
4.3709567898628207e-17
40
0.093750000000000097
210
4.5447966123973192e-33
220
8.0507802897076201e-31
230
1
100
AcDbArc
50
74.344643198394962
51
320.43528789934942
0
ARC
5
135
100
AcDbEntity
8
0
100
AcDbCircle
10
-2.7377940266330154
20
1.066793250252319
30
4.3709567898628194e-17
40
0.015000000000000308
210
-1.5330890073864853e-30
220
-3.9380950917296995e-30
230
1
100
AcDbArc
50
254.34464319839566
51
357.29680225026976
0
ARC
5
136
100
AcDbEntity
8
0
100
AcDbCircle
10
-3.1249999999999027
20
0.84999999999999876
30
4.3709567898628207e-17
40
0.45656248093699681
210
-1.3136398831183955e-17
220
2.4450095251775447e-17
230
1
100
AcDbArc
50
28.247979293052119
51
39.321547559616789
0
LINE
5
137
100
AcDbEntity
8
0
100
AcDbLine
10
-2.7718023570770014
20
1.1393108042226225
30
9.1020503478366304e-17
11
-2.9111458803588279
21
1.0199776992247345
31
-1.3112870369588452e-16
0
ARC
5
138
100
AcDbEntity
8
0
100
AcDbCircle
10
-2.9391334748893376
20
1.0091751739460679
30
4.37095678986282e-17
40
0.029999999999999961
210
1.4197288866545183e-32
220
5.5189515311882401e-31
230
1
100
AcDbArc
50
-299.9521930847352
51
21.105365646305877
0
LINE
5
139
100
AcDbEntity
8
0
100
AcDbLine
10
-2.9241551581464762
20
1.03516844283535
30
4.3709567898628188e-17
11
-2.7848116348646554
21
1.1545015478332445
31
-1.3112870369588472e-16
0
ARC
5
140
100
AcDbEntity
8
0
100
AcDbCircle
10
-3.1249999999999027
20
0.84999999999999876
30
4.3709567898628207e-17
40
0.45656249999998316
210
2.8533528822371616e-16
220
2.5540272925273225e-16
230
1
100
AcDbArc
50
41.831625001995739
51
52.905194703233114
0
ARC
5
141
100
AcDbEntity
8
0
100
AcDbCircle
10
-2.8512361900263969
20
1.1992580070876153
30
2.1854783949314103e-16
40
0.015000022228143289
210
1.2474250506304465e-15
220
1.1588924796126809e-14
230
1
100
AcDbArc
50
83.856370311840209
51
186.80852936317919
0
ARC
5
142
100
AcDbEntity
8
0
100
AcDbCircle
10
-2.9592192709804235
20
1.1863655004393305
30
-3.0596697529039742e-16
40
0.093749999999999986
210
-7.663310196215103e-32
220
9.1783403477533246e-31
230
1
100
AcDbArc
50
-239.2821153377246
51
6.8085293631772243
0
ARC
5
143
100
AcDbEntity
8
0
100
AcDbCircle
10
-3.0147699990604959
20
1.2798570995794343
30
4.3709567898628207e-17
40
0.014999999999999984
210
1.1907915136657561e-14
220
-2.0040961964460386e-14
230
1
100
AcDbArc
50
-59.282115337726431
51
43.670043713991667
0
ARC
5
144
100
AcDbEntity
8
0
100
AcDbCircle
10
-3.1249999999999027
20
0.84999999999999876
30
4.3709567898628207e-17
40
0.45656248093696833
210
-5.3523501890441142e-17
220
1.4721503197824039e-17
230
1
100
AcDbArc
50
74.62122075683618
51
85.694789023397348
0
LINE
5
145
100
AcDbEntity
8
0
100
AcDbLine
10
-3.0907261182933836
20
1.3052742222430074
30
3.8841704529508677e-17
11
-3.1004880177528147
21
1.1220756612553315
31
-1.3112870369588447e-16
0
ARC
5
146
100
AcDbEntity
8
0
100
AcDbCircle
10
-3.1119788685667293
20
1.0943635637603235
30
-1.3112870369588462e-16
40
0.029999999999999666
210
3.0057881319587809e-32
220
6.8340471045752281e-31
230
1
100
AcDbArc
50
-253.57895162092422
51
67.478607110113671
0
LINE
5
147
100
AcDbEntity
8
0
100
AcDbLine
10
-3.120459684208893
20
1.1231398693960999
30
-1.3112870369588464e-16
11
-3.1106977847494681
21
1.3063384303837864
31
-1.3112870369588477e-16
0
ARC
5
148
100
AcDbEntity
8
0
100
AcDbCircle
10
-3.1249999999999027
20
0.84999999999999876
30
4.3709567898628207e-17
40
0.4565624999999548
210
1.1996079610478033e-17
220
3.8275693970123273e-16
230
1
100
AcDbArc
50
88.204866465776419
51
99.278436167020402
0
ARC
5
149
100
AcDbEntity
8
0
100
AcDbCircle
10
-3.1889248665582315
20
1.2891370977286043
30
2.1854783949314103e-16
40
0.01500002222814365
210
-7.5279694029724153e-15
220
8.8988158681437902e-15
230
1
100
AcDbArc
50
130.22961177566739
51
233.18177082698227
0
ARC
5
150
100
AcDbEntity
8
0
100
AcDbCircle
10
-3.254096384745274
20
1.2020782916421653
30
4.3709567898628207e-17
40
0.09375000000000025
210
2.0415454364724641e-32
220
7.8418181409798304e-31
230
1
100
AcDbArc
50
-192.90887387396688
51
53.181770826983261
0
ARC
5
151
100
AcDbEntity
8
0
100
AcDbCircle
10
-3.360097903136674
20
1.2263731593865619
30
4.3709567898628207e-17
40
0.015000000000000246
210
1.1534758054466539e-30
220
6.8834126234111178e-31
230
1
100
AcDbArc
50
-12.908873873965037
51
90.043285177797074
0
ARC
5
152
100
AcDbEntity
8
0
100
AcDbCircle
10
-3.1249999999999027
20
0.84999999999999876
30
4.3709567898628207e-17
40
0.45656248093695417
210
4.7585106766465749e-17
220
2.858575738096993e-17
230
1
100
AcDbArc
50
120.99446222061768
51
132.06803048718365
0
LINE
5
153
100
AcDbEntity
8
0
100
AcDbLine
10
-3.4309025874819734
20
1.1889290831102715
30
4.8577431267749018e-17
11
-3.3050296591008492
21
1.055463681864141
31
-3.0596697529039732e-16
0
ARC
5
154
100
AcDbEntity
8
0
100
AcDbCircle
10
-3.2928984659829359
20
1.0280258584530844
30
4.3709567898628207e-17
40
0.030000000000000495
210
1.0265632864118778e-32
220
7.2759300237759495e-31
230
1
100
AcDbArc
50
-207.20571015713182
51
113.85184857390635
0
LINE
5
155
100
AcDbEntity
8
0
100
AcDbLine
10
-3.3195795904034862
20
1.0417414554016364
30
4.3709567898628194e-17
11
-3.4454525187846228
21
1.1752068566477705
31
-3.0596697529039757e-16
0
ARC
5
156
100
AcDbEntity
8
0
100
AcDbCircle
10
-3.1249999999999027
20
0.84999999999999876
30
4.3709567898628207e-17
40
0.45656249999994064
210
-4.980231522503685e-16
220
5.8450111291216358e-16
230
1
100
AcDbArc
50
134.57810792956275
51
145.65167763082241
0
ARC
5
157
100
AcDbEntity
8
0
100
AcDbCircle
10
-3.4869747145278858
20
1.1067140144370697
30
-3.0596697529039742e-16
40
0.015000022228143287
210
2.3594724639126698e-14
220
-1.4006058126274129e-15
230
1
100
AcDbArc
50
176.60285323964106
51
279.55501229083796
0
ARC
5
158
100
AcDbEntity
8
0
100
AcDbCircle
10
-3.4689228118456423
20
0.99947273829047223
30
4.3709567898628207e-17
40
0.09375000000000068
210
-1.7428804586165883e-32
220
7.7734061222361252e-31
230
1
100
AcDbArc
50
-146.53563241020026
51
99.555012290835577
0
ARC
5
159
100
AcDbEntity
8
0
100
AcDbCircle
10
-3.5596452060242014
20
0.93950600005576324
30
4.3709567898628194e-17
40
0.01499999999999911
210
-2.6988622648928481e-30
220
-1.783925219740206e-30
230
1
100
AcDbArc
50
33.464367589795842
51
136.41652664160182
0
ARC
5
160
100
AcDbEntity
8
0
100
AcDbCircle
10
-3.1249999999999027
20
0.84999999999999876
30
4.3709567898628207e-17
40
0.45656248093690827
210
1.4759941451413384e-31
220
7.5578116086597301e-31
230
1
100
AcDbArc
50
167.36770368440423
51
177.49623621996568
0
LINE
5
161
100
AcDbEntity
8
0
100
AcDbLine
10
-3.5811266444597614
20
0.86994493970769948
30
4.3709567898628188e-17
11
-3.4120963444856742
21
0.85239058258499834
31
4.3709567898628219e-17
0
ARC
5
162
100
AcDbEntity
8
0
100
AcDbCircle
10
-3.3849963580522915
20
0.83952237620994874
30
4.37095678986282e-17
40
0.029999999999999361
210
4.3628972094219199e-32
220
5.0965937709063181e-31
230
1
100
AcDbArc
50
-166.45788088306074
51
154.59967784797786
0
LINE
5
163
100
AcDbEntity
8
0
100
AcDbLine
10
-3.4141622994911449
20
0.83249757301090288
30
4.3709567898628207e-17
11
-3.5815624999997975
21
0.8498826388990296
31
4.3709567898628194e-17
0
LINE
5
164
100
AcDbEntity
8
0
100
AcDbLine
10
-3.5815624999997975
20
0.8498826388990296
30
4.3709567898628194e-17
11
-3.581562499999936
21
0.78623154147351115
31
4.3709567898628256e-17
0
ARC
5
165
100
AcDbEntity
8
0
100
AcDbCircle
10
-3.5665624999999359
20
0.78623154147347862
30
4.3709567898628207e-17
40
0.015000000000000008
210
3.2351579118330445e-30
220
6.777480746216814e-31
230
1
100
AcDbArc
50
180
51
307.7392534577192
0
ARC
5
166
100
AcDbEntity
8
0
100
AcDbCircle
10
-3.4999999999999676
20
0.70023156418421251
30
4.3709567898628207e-17
40
0.093750000000000097
210
-1.6430054806711792e-33
220
7.8673811184600462e-31
230
1
100
AcDbArc
50
-127.73925345772518
51
127.73925345771863
0
ARC
5
167
100
AcDbEntity
8
0
100
AcDbCircle
10
-3.5665624999999457
20
0.6142315868949545
30
4.3709567898628207e-17
40
0.014999999999999753
210
-2.6611302285275742e-30
220
-2.8494964113011162e-30
230
1
100
AcDbArc
50
52.260746542273417
51
180
0
LINE
5
168
100
AcDbEntity
8
0
100
AcDbLine
10
-3.5815624999999458
20
0.61423158689495483
30
4.3709567898628219e-17
11
-3.5815624999999485
21
0.55847548636568878
31
4.3709567898628207e-17
0
SPLINE
5
169
100
AcDbEntity
8
0
100
AcDbSpline
70
0
71
3
72
27
73
23
74
0
42
0.000000001
43
0.0000000001
44
0.0000000001
40
0.22131275134066389
40
0.22131275134066389
40
0.22131275134066389
40
0.22131275134066389
40
0.2221986780764959
40
0.2221986780764959
40
0.24072260302441953
40
0.24072260302441953
40
0.25924188146725968
40
0.25924188146725968
40
0.27775561187020098
40
0.27775561187020098
40
0.29626478368433223
40
0.29626478368433223
40
0.29626478368433223
40
0.31477395549846349
40
0.31477395549846349
40
0.33328768590140478
40
0.33328768590140478
40
0.35180696434424497
40
0.35180696434424497
40
0.37033088929216862
40
0.37033088929216862
40
0.37121681602800005
40
0.37121681602800005
40
0.37121681602800005
40
0.37121681602800005
10
-3.3444730373204159
20
0.019681901383841842
30
4.3709567898628207e-17
10
-3.3445911635981211
20
0.019684009811411118
30
4.3709567898628207e-17
10
-3.3447084177860691
20
0.019685039370079017
30
4.3709567898628207e-17
10
-3.3472556424164832
20
0.019685039370079017
30
4.3709567898628207e-17
10
-3.3501167830254044
20
0.019116128864495447
30
-3.0596697529039742e-16
10
-3.3546082363968988
20
0.017256234091712012
30
4.3709567898628207e-17
10
-3.357033425320552
20
0.015636365327923656
30
4.3709567898628207e-17
10
-3.3604704505166314
20
0.012200348161547225
30
4.3709567898628207e-17
10
-3.3620906487102684
20
0.0097764301540006725
30
4.3709567898628207e-17
10
-3.3639504191726544
20
0.0052878089961217352
30
-3.0596697529039742e-16
10
-3.3645192690517147
20
0.0024290251724581697
30
4.3709567898628207e-17
10
-3.3645192690517147
20
8.2435964595714994e-32
30
4.3709567898628207e-17
10
-3.3645192690517147
20
-0.0024290251724581697
30
4.3709567898628207e-17
10
-3.3639504191726544
20
-0.0052878089961217352
30
-3.0596697529039742e-16
10
-3.3620906487102684
20
-0.0097764301540006725
30
4.3709567898628207e-17
10
-3.3604704505166314
20
-0.012200348161547225
30
4.3709567898628207e-17
10
-3.357033425320552
20
-0.015636365327923656
30
4.3709567898628207e-17
10
-3.3546082363968988
20
-0.017256234091712012
30
4.3709567898628207e-17
10
-3.3501167830254044
20
-0.019116128864495447
30
-3.0596697529039742e-16
10
-3.3472556424164832
20
-0.019685039370079017
30
4.3709567898628207e-17
10
-3.3447084177860691
20
-0.019685039370079017
30
-3.0596697529039742e-16
10
-3.3445911635981211
20
-0.019684009811411114
30
4.3709567898628207e-17
10
-3.3444730373204159
20
-0.019681901383841842
30
3.9338611108765388e-16
0
SPLINE
5
170
100
AcDbEntity
8
0
100
AcDbSpline
70
0
71
3
72
26
73
22
74
0
42
0.000000001
43
0.0000000001
44
0.0000000001
40
-0.22310820814319582
40
-0.22310820814319582
40
-0.22310820814319582
40
-0.22310820814319582
40
-0.22222209406370522
40
-0.22222209406370522
40
-0.20369296687495222
40
-0.20369296687495222
40
-0.18517039514141259
40
-0.18517039514141259
40
-0.16665584744910009
40
-0.16665584744910009
40
-0.14814797649912456
40
-0.14814797649912456
40
-0.12964010554914904
40
-0.12964010554914904
40
-0.11112555785683653
40
-0.11112555785683653
40
-0.092602986123296885
40
-0.092602986123296885
40
-0.074073858934543879
40
-0.074073858934543879
40
-0.073187744855052403
40
-0.073187744855052403
40
-0.073187744855052403
40
-0.073187744855052403
10
-3.3444730373204763
20
-0.019681901380411752
30
-3.0596697529039742e-16
10
-3.3443548860972285
20
-0.019684009812601565
30
4.3709567898628207e-17
10
-3.3442376071394544
20
-0.019685039370079017
30
4.3709567898628207e-17
10
-3.3416896752144885
20
-0.019685039370079017
30
-3.0596697529039742e-16
10
-3.3388277143655714
20
-0.019116053186639611
30
-3.0596697529039742e-16
10
-3.3343351473489222
20
-0.017255933689125331
30
4.3709567898628207e-17
10
-3.3319094041587056
20
-0.015635961019579959
30
-3.0596697529039742e-16
10
-3.32847176575416
20
-0.012199794253144776
30
-3.0596697529039742e-16
10
-3.326851307508504
20
-0.009775895268565293
30
-3.0596697529039742e-16
10
-3.324991352871868
20
-0.0052874191180765067
30
-3.0596697529039742e-16
10
-3.3244224513168046
20
-0.0024288544553773663
30
4.3709567898628207e-17
10
-3.3244224513168046
20
0.0024288544553773663
30
4.3709567898628207e-17
10
-3.324991352871868
20
0.0052874191180765067
30
-3.0596697529039742e-16
10
-3.326851307508504
20
0.009775895268565293
30
-3.0596697529039742e-16
10
-3.32847176575416
20
0.012199794253144776
30
-3.0596697529039742e-16
10
-3.3319094041587056
20
0.015635961019579959
30
-3.0596697529039742e-16
10
-3.3343351473489222
20
0.017255933689125331
30
4.3709567898628207e-17
10
-3.3388277143655714
20
0.019116053186639611
30
-3.0596697529039742e-16
10
-3.3416896752144885
20
0.019685039370079017
30
-3.0596697529039742e-16
10
-3.3442376071394553
20
0.019685039370079017
30
4.3709567898628207e-17
10
-3.344354886097229
20
0.019684009812601565
30
-3.0596697529039742e-16
10
-3.3444730373204767
20
0.019681901380411752
30
4.3709567898628207e-17
0
SPLINE
5
171
100
AcDbEntity
8
0
100
AcDbSpline
70
0
71
3
72
27
73
23
74
0
42
0.000000001
43
0.0000000001
44
0.0000000001
40
0.22129420421999529
40
0.22129420421999529
40
0.22129420421999529
40
0.22129420421999529
40
0.22220133051702662
40
0.22220133051702662
40
0.24072583534847797
40
0.24072583534847797
40
0.25924546599572929
40
0.25924546599572929
40
0.27775927853104826
40
0.27775927853104826
40
0.29626831134475062
40
0.29626831134475062
40
0.29626831134475062
40
0.31477734415845299
40
0.31477734415845299
40
0.33329115669377191
40
0.33329115669377191
40
0.35181078734102328
40
0.35181078734102328
40
0.37033529217247463
40
0.37033529217247463
40
0.37124241846950595
40
0.37124241846950595
40
0.37124241846950595
40
0.37124241846950595
10
-3.2656850524625041
20
0.019681748320766249
30
4.3709567898628207e-17
10
-3.2658060483368296
20
0.019683959971689698
30
-3.0596697529039742e-16
10
-3.2659261327387648
20
0.019685039370079017
30
4.3709567898628207e-17
10
-3.268476215564025
20
0.019685039370079017
30
4.3709567898628207e-17
10
-3.2713374476620682
20
0.019116120722842807
30
-3.0596697529039742e-16
10
-3.2758290230932121
20
0.017256200993614801
30
4.3709567898628207e-17
10
-3.2782542714032248
20
0.015636321280376023
30
4.3709567898628207e-17
10
-3.2816913613758238
20
0.012200288288295018
30
4.3709567898628207e-17
10
-3.2833115864762883
20
0.0097763727083459082
30
4.3709567898628207e-17
10
-3.2851713757141545
20
0.00528776740799716
30
-3.0596697529039742e-16
10
-3.2857402307574768
20
0.0024290069309320654
30
4.3709567898628207e-17
10
-3.2857402307574768
20
8.2435964595714994e-32
30
4.3709567898628207e-17
10
-3.2857402307574768
20
-0.0024290069309320654
30
4.3709567898628207e-17
10
-3.2851713757141545
20
-0.00528776740799716
30
-3.0596697529039742e-16
10
-3.2833115864762883
20
-0.0097763727083459082
30
4.3709567898628207e-17
10
-3.2816913613758238
20
-0.012200288288295018
30
4.3709567898628207e-17
10
-3.2782542714032248
20
-0.015636321280376023
30
4.3709567898628207e-17
10
-3.2758290230932121
20
-0.017256200993614801
30
4.3709567898628207e-17
10
-3.2713374476620682
20
-0.019116120722842807
30
-3.0596697529039742e-16
10
-3.268476215564025
20
-0.019685039370079017
30
4.3709567898628207e-17
10
-3.2659261327387648
20
-0.019685039370079017
30
4.3709567898628207e-17
10
-3.2658060483368305
20
-0.019683959971689702
30
4.3709567898628207e-17
10
-3.2656850524625041
20
-0.019681748320766249
30
4.3709567898628207e-17
0
SPLINE
5
172
100
AcDbEntity
8
0
100
AcDbSpline
70
0
71
3
72
26
73
22
74
0
42
0.000000001
43
0.0000000001
44
0.0000000001
40
-0.22313321942013128
40
-0.22313321942013128
40
-0.22313321942013128
40
-0.22313321942013128
40
-0.22222589190951883
40
-0.22222589190951883
40
-0.20369592902832212
40
-0.20369592902832212
40
-0.18517284055413413
40
-0.18517284055413413
40
-0.16665816897207419
40
-0.16665816897207419
40
-0.14815050200207031
40
-0.14815050200207031
40
-0.12964283503206619
40
-0.12964283503206619
40
-0.11112816345000645
40
-0.11112816345000645
40
-0.092605074975818477
40
-0.092605074975818477
40
-0.074075112094621781
40
-0.074075112094621781
40
-0.073167784584008355
40
-0.073167784584008355
40
-0.073167784584008355
40
-0.073167784584008355
10
-3.2656850524625742
20
-0.019681748316914913
30
-3.0596697529039742e-16
10
-3.2655640297867108
20
-0.019683959973040611
30
3.9338611108765388e-16
10
-3.2654439187763118
20
-0.019685039370079014
30
-3.0596697529039742e-16
10
-3.2628930932655766
20
-0.019685039370079111
30
3.9338611108765388e-16
10
-3.2600310006042785
20
-0.019116041273954068
30
-3.0596697529039742e-16
10
-3.2555382564041779
20
-0.01725588575875758
30
-3.0596697529039742e-16
10
-3.253112426155484
20
-0.015635896923365991
30
-3.0596697529039742e-16
10
-3.249674692197714
20
-0.01219970682990848
30
-3.0596697529039742e-16
10
-3.248054193895876
20
-0.0097758111559281286
30
-1.3112870369588462e-16
10
-3.2461942111226549
20
-0.0052873580421384228
30
-3.0596697529039742e-16
10
-3.2456253017588401
20
-0.0024288276863522161
30
4.3709567898628207e-17
10
-3.2456253017588401
20
0.0024288276863522434
30
4.3709567898628207e-17
10
-3.2461942111226549
20
0.0052873580421384887
30
-3.0596697529039742e-16
10
-3.248054193895876
20
0.0097758111559281911
30
-1.3112870369588462e-16
10
-3.249674692197714
20
0.012199706829908497
30
-3.0596697529039742e-16
10
-3.253112426155484
20
0.015635896923365991
30
-3.0596697529039742e-16
10
-3.2555382564041779
20
0.01725588575875758
30
-3.0596697529039742e-16
10
-3.2600310006042785
20
0.019116041273954068
30
-3.0596697529039742e-16
10
-3.2628930932655766
20
0.019685039370079111
30
3.9338611108765388e-16
10
-3.2654439187763118
20
0.019685039370079014
30
-3.0596697529039742e-16
10
-3.2655640297867108
20
0.019683959973040611
30
3.9338611108765388e-16
10
-3.2656850524625742
20
0.019681748316914913
30
-3.0596697529039742e-16
0
SPLINE
5
173
100
AcDbEntity
8
0
100
AcDbSpline
70
0
71
3
72
27
73
23
74
0
42
0.000000001
43
0.0000000001
44
0.0000000001
40
0.22127481597801385
40
0.22127481597801385
40
0.22127481597801385
40
0.22127481597801385
40
0.22220418226278077
40
0.22220418226278077
40
0.24072931046115711
40
0.24072931046115711
40
0.25924931963698278
40
0.25924931963698278
40
0.27776322041231594
40
0.27776322041231594
40
0.29627210384052871
40
0.29627210384052871
40
0.29627210384052871
40
0.31478098726874149
40
0.31478098726874149
40
0.33329488804407459
40
0.33329488804407459
40
0.35181489721990039
40
0.35181489721990039
40
0.37034002541827671
40
0.37034002541827671
40
0.37126939170304551
40
0.37126939170304551
40
0.37126939170304551
40
0.37126939170304551
10
-3.1868947035713924
20
0.019681583778937521
30
4.3709567898628207e-17
10
-3.1870187118890234
20
0.019683906421615098
30
-1.3112870369588462e-16
10
-3.1871417666370991
20
0.019685039370079017
30
-1.3112870369588462e-16
10
-3.1896948499026037
20
0.019685039370079017
30
-1.3112870369588462e-16
10
-3.1925561803505453
20
0.019116111972543853
30
-1.3112870369588462e-16
10
-3.1970478869821943
20
0.017256165416556953
30
-1.3112870369588462e-16
10
-3.1994731991177754
20
0.015636273936789808
30
4.3709567898628207e-17
10
-3.202910358703551
20
0.012200223937505876
30
4.3709567898628207e-17
10
-3.2045306127163879
20
0.0097763109690543228
30
-1.3112870369588462e-16
10
-3.2063904221274178
20
0.0052877227130960448
30
-1.3112870369588462e-16
10
-3.2069592827187794
20
0.0024289873265371056
30
-1.3112870369588462e-16
10
-3.2069592827187794
20
8.2435964595714863e-32
30
-1.3112870369588462e-16
10
-3.2069592827187794
20
-0.0024289873265371056
30
-1.3112870369588462e-16
10
-3.2063904221274178
20
-0.0052877227130960448
30
-1.3112870369588462e-16
10
-3.2045306127163879
20
-0.0097763109690543228
30
-1.3112870369588462e-16
10
-3.202910358703551
20
-0.012200223937505876
30
4.3709567898628207e-17
10
-3.1994731991177754
20
-0.015636273936789818
30
4.3709567898628207e-17
10
-3.1970478869821943
20
-0.017256165416557036
30
-1.3112870369588462e-16
10
-3.1925561803505453
20
-0.019116111972543936
30
-1.3112870369588462e-16
10
-3.1896948499026037
20
-0.019685039370079017
30
-1.3112870369588462e-16
10
-3.1871417666370991
20
-0.019685039370079017
30
-1.3112870369588462e-16
10
-3.1870187118890234
20
-0.019683906421615088
30
3.9338611108765388e-16
10
-3.1868947035713915
20
-0.019681583778937511
30
2.1854783949314103e-16
0
SPLINE
5
174
100
AcDbEntity
8
0
100
AcDbSpline
70
0
71
3
72
26
73
22
74
0
42
0.000000001
43
0.0000000001
44
0.0000000001
40
-0.22315955804035326
40
-0.22315955804035326
40
-0.22315955804035326
40
-0.22315955804035326
40
-0.22222997526828636
40
-0.22222997526828636
40
-0.20369911385541384
40
-0.20369911385541384
40
-0.18517546966924064
40
-0.18517546966924064
40
-0.166660664810755
40
-0.166660664810755
40
-0.14815321719837091
40
-0.14815321719837091
40
-0.12964576958598681
40
-0.12964576958598681
40
-0.11113096472750116
40
-0.11113096472750116
40
-0.092607320541327975
40
-0.092607320541327975
40
-0.074076459128455466
40
-0.074076459128455466
40
-0.07314687635638914
40
-0.07314687635638914
40
-0.07314687635638914
40
-0.07314687635638914
10
-3.1868947035714728
20
-0.019681583774601313
30
4.3709567898628207e-17
10
-3.1867706664075195
20
-0.019683906423152986
30
4.3709567898628207e-17
10
-3.1866475830257466
20
-0.019685039370079017
30
4.3709567898628207e-17
10
-3.1840937189594816
20
-0.019685039370079017
30
-1.3112870369588462e-16
10
-3.1812314845747394
20
-0.019116028463546091
30
4.3709567898628207e-17
10
-3.1767385498517577
20
-0.017255834222740771
30
4.3709567898628207e-17
10
-3.1743126259798258
20
-0.015635828001685469
30
-1.3112870369588462e-16
10
-3.1708747892560134
20
-0.012199612821186244
30
-1.3112870369588462e-16
10
-3.1692542478700103
20
-0.0097757207045749191
30
4.3709567898628207e-17
10
-3.1673942348310704
20
-0.0052872923611214807
30
4.3709567898628207e-17
10
-3.1668253170667842
20
-0.0024287988992630054
30
4.3709567898628207e-17
10
-3.1668253170667842
20
0.0024287988992630054
30
4.3709567898628207e-17
10
-3.1673942348310704
20
0.0052872923611214807
30
4.3709567898628207e-17
10
-3.1692542478700103
20
0.0097757207045749191
30
4.3709567898628207e-17
10
-3.1708747892560134
20
0.012199612821186244
30
-1.3112870369588462e-16
10
-3.1743126259798258
20
0.015635828001685469
30
-1.3112870369588462e-16
10
-3.1767385498517577
20
0.017255834222740771
30
4.3709567898628207e-17
10
-3.1812314845747394
20
0.019116028463546091
30
4.3709567898628207e-17
10
-3.1840937189594816
20
0.019685039370079017
30
-1.3112870369588462e-16
10
-3.1866475830257466
20
0.019685039370079017
30
4.3709567898628207e-17
10
-3.1867706664075199
20
0.019683906423152986
30
4.3709567898628207e-17
10
-3.1868947035714728
20
0.019681583774601313
30
-1.3112870369588462e-16
0
SPLINE
5
175
100
AcDbEntity
8
0
100
AcDbSpline
70
0
71
3
72
27
73
23
74
0
42
0.000000001
43
0.0000000001
44
0.0000000001
40
0.22125452850369209
40
0.22125452850369209
40
0.22125452850369209
40
0.22125452850369209
40
0.22220725380003481
40
0.22220725380003481
40
0.24073305330890135
40
0.24073305330890135
40
0.25925347002841009
40
0.25925347002841009
40
0.27776746577246048
40
0.27776746577246048
40
0.29627618836903219
40
0.29627618836903219
40
0.29627618836903219
40
0.3147849109656039
40
0.3147849109656039
40
0.33329890670965423
40
0.33329890670965423
40
0.351819323429163
40
0.351819323429163
40
0.37034512293802951
40
0.37034512293802951
40
0.37129784823437351
40
0.37129784823437351
40
0.37129784823437351
40
0.37129784823437351
10
-3.108101810870056
20
0.019681406581177376
30
-1.3112870369588462e-16
10
-3.1082289854128855
20
0.019683848783353962
30
4.3709567898628207e-17
10
-3.1083551613208371
20
0.019685039370078667
30
4.3709567898628207e-17
10
-3.1109113981719143
20
0.019685039370078729
30
-1.3112870369588462e-16
10
-3.1137728345342874
20
0.019116102551371094
30
-1.3112870369588462e-16
10
-3.1182646824436229
20
0.017256127106597297
30
4.3709567898628207e-17
10
-3.1206900632978338
20
0.015636222959845614
30
4.3709567898628207e-17
10
-3.1241272978273531
20
0.012200154651232231
30
-1.3112870369588462e-16
10
-3.125747582962537
20
0.0097762444972419767
30
4.3709567898628207e-17
10
-3.1276074140866936
20
0.0052876745940231467
30
-1.3112870369588462e-16
10
-3.1281762806488627
20
0.0024289662200225313
30
4.3709567898628207e-17
10
-3.1281762806488627
20
8.2435964595714994e-32
30
4.3709567898628207e-17
10
-3.1281762806488627
20
-0.0024289662200225313
30
4.3709567898628207e-17
10
-3.1276074140866936
20
-0.0052876745940231467
30
-1.3112870369588462e-16
10
-3.125747582962537
20
-0.0097762444972419767
30
4.3709567898628207e-17
10
-3.1241272978273531
20
-0.012200154651232231
30
-1.3112870369588462e-16
10
-3.1206900632978338
20
-0.015636222959845614
30
4.3709567898628207e-17
10
-3.1182646824436229
20
-0.017256127106597297
30
4.3709567898628207e-17
10
-3.1137728345342874
20
-0.019116102551371094
30
-1.3112870369588462e-16
10
-3.1109113981719143
20
-0.019685039370078729
30
-1.3112870369588462e-16
10
-3.1083551613208367
20
-0.019685039370078667
30
4.3709567898628207e-17
10
-3.1082289854128842
20
-0.019683848783353972
30
-1.3112870369588462e-16
10
-3.1081018108700555
20
-0.019681406581177383
30
4.3709567898628207e-17
0
SPLINE
5
176
100
AcDbEntity
8
0
100
AcDbSpline
70
0
71
3
72
26
73
22
74
0
42
0.000000001
43
0.0000000001
44
0.0000000001
40
-0.2231873321497175
40
-0.2231873321497175
40
-0.2231873321497175
40
-0.2231873321497175
40
-0.22223437350634848
40
-0.22223437350634848
40
-0.20370254425783438
40
-0.20370254425783438
40
-0.1851783013670612
40
-0.1851783013670612
40
-0.16666335287237324
40
-0.16666335287237324
40
-0.14815614158117046
40
-0.14815614158117046
40
-0.12964893028996746
40
-0.12964893028996746
40
-0.11113398179527968
40
-0.11113398179527968
40
-0.092609738904506508
40
-0.092609738904506508
40
-0.074077909655992424
40
-0.074077909655992424
40
-0.073124951012623382
40
-0.073124951012623382
40
-0.073124951012623382
40
-0.073124951012623382
10
-3.1081018108701493
20
-0.01968140657628125
30
-1.3112870369588462e-16
10
-3.1079746052227981
20
-0.019683848785110626
30
4.3709567898628207e-17
10
-3.1078483984450389
20
-0.019685039370078667
30
-1.3112870369588462e-16
10
-3.105291339666576
20
-0.019685039370078667
30
-1.3112870369588462e-16
10
-3.1024289526277533
20
-0.019116014662867279
30
4.3709567898628207e-17
10
-3.0979358126684327
20
-0.017255778710016656
30
4.3709567898628207e-17
10
-3.0955097879312206
20
-0.015635753757566196
30
-1.3112870369588462e-16
10
-3.0920718404836247
20
-0.01219951154833893
30
-1.3112870369588462e-16
10
-3.0904512526722971
20
-0.0097756232610355012
30
-1.3112870369588462e-16
10
-3.0885912070180748
20
-0.0052872216000246549
30
-1.3112870369588462e-16
10
-3.0880222802002533
20
-0.0024287678859846173
30
-1.3112870369588462e-16
10
-3.0880222802002533
20
0.0024287678859846455
30
-1.3112870369588462e-16
10
-3.0885912070180748
20
0.0052872216000247208
30
-1.3112870369588462e-16
10
-3.0904512526722971
20
0.0097756232610355636
30
-1.3112870369588462e-16
10
-3.0920718404836247
20
0.012199511548338945
30
-1.3112870369588462e-16
10
-3.0955097879312206
20
0.015635753757566196
30
-1.3112870369588462e-16
10
-3.0979358126684327
20
0.017255778710016656
30
4.3709567898628207e-17
10
-3.1024289526277533
20
0.019116014662867279
30
4.3709567898628207e-17
10
-3.105291339666576
20
0.019685039370078667
30
-1.3112870369588462e-16
10
-3.1078483984450389
20
0.019685039370078667
30
-1.3112870369588462e-16
10
-3.107974605222799
20
0.019683848785110616
30
-1.3112870369588462e-16
10
-3.1081018108701506
20
0.01968140657628123
30
4.3709567898628207e-17
0
SPLINE
5
177
100
AcDbEntity
8
0
100
AcDbSpline
70
0
71
3
72
27
73
23
74
0
42
0.000000001
43
0.0000000001
44
0.0000000001
40
0.22131275134095321
40
0.22131275134095321
40
0.22131275134095321
40
0.22131275134095321
40
0.22219867807649615
40
0.22219867807649615
40
0.24072033193402415
40
0.24072033193402415
40
0.25923734075400046
40
0.25923734075400046
40
0.27775334225459314
40
0.27775334225459314
40
0.2962647837112839
40
0.2962647837112839
40
0.2962647837112839
40
0.31477395552541471
40
0.31477395552541471
40
0.33328768592835711
40
0.33328768592835711
40
0.35180696437119741
40
0.35180696437119741
40
0.37033088931912106
40
0.37033088931912106
40
0.37121681605495432
40
0.37121681605495432
40
0.37121681605495432
40
0.37121681605495432
10
-3.3444730373205322
20
0.098422058864156808
30
-3.0596697529039742e-16
10
-3.3445911635981989
20
0.098424167291724679
30
-3.0596697529039742e-16
10
-3.3447084177861073
20
0.098425196850393956
30
4.3709567898628207e-17
10
-3.3472553443731243
20
0.098425196850393956
30
4.3709567898628207e-17
10
-3.3501161477314354
20
0.09785642416416436
30
4.3709567898628207e-17
10
-3.3546071390624355
20
0.0959969711481896
30
4.3709567898628207e-17
10
-3.3570321464014694
20
0.094377474040953577
30
4.3709567898628207e-17
10
-3.3604694988949912
20
0.090941784025453762
30
4.3709567898628207e-17
10
-3.3620900690032114
20
0.088517684428430277
30
4.3709567898628207e-17
10
-3.3639502813264648
20
0.084028601331189515
30
4.3709567898628207e-17
10
-3.3645192690517147
20
0.081169480506127378
30
4.3709567898628207e-17
10
-3.3645192690517147
20
0.078740157480314932
30
4.3709567898628207e-17
10
-3.3645192690517147
20
0.076311132307856827
30
4.3709567898628207e-17
10
-3.3639504191726557
20
0.073452348484193145
30
4.3709567898628207e-17
10
-3.3620906487102693
20
0.068963727326314117
30
-3.0596697529039742e-16
10
-3.3604704505166314
20
0.066539809318767906
30
4.3709567898628207e-17
10
-3.357033425320552
20
0.063103792152391355
30
4.3709567898628207e-17
10
-3.3546082363968988
20
0.061483923388602923
30
4.3709567898628207e-17
10
-3.3501167830254044
20
0.059624028615819495
30
-3.0596697529039742e-16
10
-3.3472556424164832
20
0.059055118110235921
30
4.3709567898628207e-17
10
-3.3447084177860691
20
0.059055118110235921
30
4.3709567898628207e-17
10
-3.3445911635981211
20
0.059056147668903845
30
4.3709567898628207e-17
10
-3.3444730373204155
20
0.059058256096473125
30
4.3709567898628207e-17
0
SPLINE
5
178
100
AcDbEntity
8
0
100
AcDbSpline
70
0
71
3
72
26
73
22
74
0
42
0.000000001
43
0.0000000001
44
0.0000000001
40
-0.22310820819839927
40
-0.22310820819839927
40
-0.22310820819839927
40
-0.22310820819839927
40
-0.22222209411890942
40
-0.22222209411890942
40
-0.20369296693015643
40
-0.20369296693015643
40
-0.18517039519661679
40
-0.18517039519661679
40
-0.16665584750430429
40
-0.16665584750430429
40
-0.14814797655432854
40
-0.14814797655432854
40
-0.12964010560435302
40
-0.12964010560435302
40
-0.11112555791204053
40
-0.11112555791204053
40
-0.092602986178501004
40
-0.092602986178501004
40
-0.074073858989747998
40
-0.074073858989747998
40
-0.073187746443895446
40
-0.073187746443895446
40
-0.073187746443895446
40
-0.073187746443895446
10
-3.3444730373204763
20
0.0590582560999032
30
4.3709567898628207e-17
10
-3.3443548860972276
20
0.059056147667713388
30
-3.0596697529039742e-16
10
-3.3442376071394544
20
0.059055118110235921
30
-3.0596697529039742e-16
10
-3.3416896752144885
20
0.059055118110235921
30
-3.0596697529039742e-16
10
-3.3388277143655714
20
0.059624104293675324
30
-3.0596697529039742e-16
10
-3.3343351473489222
20
0.061484223791189604
30
4.3709567898628207e-17
10
-3.3319094041587056
20
0.063104196460734979
30
-3.0596697529039742e-16
10
-3.32847176575416
20
0.066540363227170163
30
-3.0596697529039742e-16
10
-3.326851307508504
20
0.068964262211749644
30
-3.0596697529039742e-16
10
-3.3249913528718666
20
0.073452738362238465
30
-3.0596697529039742e-16
10
-3.3244224513168046
20
0.076311303024937632
30
4.3709567898628207e-17
10
-3.3244224513168046
20
0.081169011935692384
30
4.3709567898628207e-17
10
-3.324991352871868
20
0.084027576598391537
30
-3.0596697529039742e-16
10
-3.326851307508504
20
0.088516052748880317
30
-3.0596697529039742e-16
10
-3.32847176575416
20
0.090939951733459798
30
-3.0596697529039742e-16
10
-3.3319094041587056
20
0.094376118499894968
30
-3.0596697529039742e-16
10
-3.3343351473489222
20
0.095996091169440273
30
4.3709567898628207e-17
10
-3.3388277143655714
20
0.097856210666954546
30
-3.0596697529039742e-16
10
-3.3416896752144885
20
0.098425196850393956
30
-3.0596697529039742e-16
10
-3.3442376069381896
20
0.098425196850393956
30
4.3709567898628207e-17
10
-3.3443548859083623
20
0.098424167296287571
30
4.3709567898628207e-17
10
-3.3444730373205935
20
0.098422058860724637
30
-3.0596697529039742e-16
0
ENDSEC
0
SECTION
2
OBJECTS
0
DICTIONARY
5
C
100
AcDbDictionary
3
ACAD_GROUP
350
D
3
ACAD_MLINESTYLE
350
17
0
DICTIONARY
5
D
100
AcDbDictionary
0
DICTIONARY
5
1A
330
C
100
AcDbDictionary
0
DICTIONARY
5
17
100
AcDbDictionary
0
ENDSEC
0
EOF
