0
SECTION
2
HEADER
9
$INSUNITS
70
1
9
$ACADVER
1
AC1014
9
$HANDSEED
5
FFFF
0
ENDSEC
0
SECTION
2
TABLES
0
TABLE
2
VPORT
5
8
100
AcDbSymbolTable
0
ENDTAB
0
TABLE
2
LTYPE
5
5
100
AcDbSymbolTable
0
LTYPE
5
14
100
AcDbSymbolTableRecord
100
AcDbLinetypeTableRecord
2
BYBLOCK
70
0
0
LTYPE
5
15
100
AcDbSymbolTableRecord
100
AcDbLinetypeTableRecord
2
BYLAYER
70
0
0
ENDTAB
0
TABLE
2
LAYER
5
2
100
AcDbSymbolTable
70
2
0
LAYER
5
50
100
AcDbSymbolTableRecord
100
AcDbLayerTableRecord
2
0
70
0
6
CONTINUOUS
0
ENDTAB
0
TABLE
2
STYLE
5
3
100
AcDbSymbolTable
70
1
0
STYLE
5
11
100
AcDbSymbolTableRecord
100
AcDbTextStyleTableRecord
2
STANDARD
70
0
0
ENDTAB
0
TABLE
2
VIEW
5
6
100
AcDbSymbolTable
70
0
0
ENDTAB
0
TABLE
2
UCS
5
7
100
AcDbSymbolTable
70
0
0
ENDTAB
0
TABLE
2
APPID
5
9
100
AcDbSymbolTable
70
2
0
APPID
5
12
100
AcDbSymbolTableRecord
100
AcDbRegAppTableRecord
2
ACAD
70
0
0
ENDTAB
0
TABLE
2
DIMSTYLE
5
A
100
AcDbSymbolTable
70
1
0
ENDTAB
0
TABLE
2
BLOCK_RECORD
5
1
100
AcDbSymbolTable
70
1
0
BLOCK_RECORD
5
1F
100
AcDbSymbolTableRecord
100
AcDbBlockTableRecord
2
*MODEL_SPACE
0
BLOCK_RECORD
5
1B
100
AcDbSymbolTableRecord
100
AcDbBlockTableRecord
2
*PAPER_SPACE
0
ENDTAB
0
ENDSEC
0
SECTION
2
BLOCKS
0
BLOCK
5
20
100
AcDbEntity
100
AcDbBlockBegin
2
*MODEL_SPACE
0
ENDBLK
5
21
100
AcDbEntity
100
AcDbBlockEnd
0
BLOCK
5
1C
100
AcDbEntity
100
AcDbBlockBegin
2
*PAPER_SPACE
0
ENDBLK
5
1D
100
AcDbEntity
100
AcDbBlockEnd
0
ENDSEC
0
SECTION
2
ENTITIES
0
LINE
5
100
100
AcDbEntity
8
0
100
AcDbLine
10
-3.5815625000000031
20
0.52053646691106281
30
0
11
-3.4282842712474708
21
0.52053646691106026
31
1.9686364221836018e-45
0
ARC
5
101
100
AcDbEntity
8
0
100
AcDbCircle
10
-3.3999999999999999
20
0.51053646691106258
30
-8.7548828299082934e-48
40
0.029999999999999836
210
3.2772446480541873e-31
220
-7.1457317472156655e-32
230
1
100
AcDbArc
50
-160.52877936551991
51
160.52877936551923
0
LINE
5
102
100
AcDbEntity
8
0
100
AcDbLine
10
-3.4282842712474637
20
0.50053646691106779
30
8.554874482265074e-33
11
-3.5815625000000022
21
0.50053646691106279
31
1.9686364221836018e-45
0
LINE
5
103
100
AcDbEntity
8
0
100
AcDbLine
10
-3.5815625000000022
20
0.50053646691106279
30
1.9686364221836018e-45
11
-3.5815624999999995
21
0.44478036638179957
31
-2.1550480812081952e-46
0
ARC
5
104
100
AcDbEntity
8
0
100
AcDbCircle
10
-3.5665624999999994
20
0.44478036638180046
30
-3.2325721218122929e-47
40
0.015000000000000008
210
-2.0675256557523728e-44
220
1.4521964819531392e-31
230
1
100
AcDbArc
50
180
51
307.73925345773836
0
ARC
5
105
100
AcDbEntity
8
0
100
AcDbCircle
10
-3.5
20
0.35878038909255888
30
0
40
0.09375
210
-5.0210625619724662e-32
220
6.7240314938559801e-32
230
1
100
AcDbArc
50
-127.73925345774245
51
127.73925345773975
0
ARC
5
106
100
AcDbEntity
8
0
100
AcDbCircle
10
-3.5665625000000039
20
0.27278041180332085
30
5.4145583040355912e-47
40
0.014999999999999855
210
-2.0918147814159319e-31
220
-1.5460618008406632e-32
230
1
100
AcDbArc
50
52.26074654225684
51
180
0
LINE
5
107
100
AcDbEntity
8
0
100
AcDbLine
10
-3.581562500000004
20
0.27278041180331664
30
-2.9582283945753908e-33
11
-3.5815624999999529
21
0.09499999999999123
31
-2.9308653904431458e-46
0
LINE
5
108
100
AcDbEntity
8
0
100
AcDbLine
10
-3.5815624999999529
20
0.09499999999999123
30
-2.9308653904431458e-46
11
-3.4777436023621573
21
0.094999999999999821
31
4.5227507607405382e-30
0
ARC
5
109
100
AcDbEntity
8
0
100
AcDbCircle
10
-3.4728223425196383
20
0.094999999999999835
30
0
40
0.0049212598425194048
210
-4.0662973072472107e-47
220
1.1245820751781991e-31
230
1
100
AcDbArc
50
-90
51
180
0
LINE
5
110
100
AcDbEntity
8
0
100
AcDbLine
10
-3.4728223425196383
20
0.090078740157480422
30
5.5343606061916099e-34
11
-3.4728223425196383
21
-0.12500000000000022
31
0
0
LINE
5
111
100
AcDbEntity
8
0
100
AcDbLine
10
-3.4728223425196383
20
-0.12500000000000022
30
0
11
-2.7771776574800864
21
-0.12500000000000025
31
1.3975882179112414e-30
0
LINE
5
112
100
AcDbEntity
8
0
100
AcDbLine
10
-2.7771776574800864
20
-0.12500000000000025
30
1.3975882179112414e-30
11
-2.7771776574800864
21
0.090078740157480047
31
0
0
ARC
5
113
100
AcDbEntity
8
0
100
AcDbCircle
10
-2.7771776574800864
20
0.094999999999999807
30
0
40
0.0049212598425197544
210
-1.6291558652422053e-45
220
-5.2548692412180298e-46
230
1
100
AcDbArc
50
0
51
270
0
LINE
5
114
100
AcDbEntity
8
0
100
AcDbLine
10
-2.7722563976375669
20
0.094999999999999793
30
8.0174993368219841e-48
11
-2.6684374999997718
21
0.095000000000030685
31
4.5227507607405207e-30
0
LINE
5
115
100
AcDbEntity
8
0
100
AcDbLine
10
-2.6684374999997718
20
0.095000000000030685
30
4.5227507607405207e-30
11
-2.668437499999992
21
0.30873178925522921
31
7.6892115537508408e-45
0
ARC
5
116
100
AcDbEntity
8
0
100
AcDbCircle
10
-2.6834374999999917
20
0.30873178925521355
30
2.1146409296855416e-47
40
0.015000000000000008
210
-5.8134955295400765e-43
220
6.7240314938510821e-32
230
1
100
AcDbArc
50
0
51
127.73925345774548
0
ARC
5
117
100
AcDbEntity
8
0
100
AcDbCircle
10
-2.7499999999999996
20
0.39473176654444858
30
0
40
0.093749999999999653
210
4.5393381119485089e-32
220
-1.3144833786709676e-31
230
1
100
AcDbArc
50
52.260746542267633
51
307.73925345774512
0
ARC
5
118
100
AcDbEntity
8
0
100
AcDbCircle
10
-2.6834375000000112
20
0.48073174383369854
30
-1.3475033081982785e-60
40
0.015000000000000265
210
2.9136794340881222e-31
220
3.7645275516970736e-31
230
1
100
AcDbArc
50
232.26074654226861
51
360
0
LINE
5
119
100
AcDbEntity
8
0
100
AcDbLine
10
-2.6684375000000111
20
0.48073174383369716
30
9.5196723540396651e-46
11
-2.6684375000000067
21
0.53648784436297214
31
-1.2068269254765893e-46
0
LINE
5
120
100
AcDbEntity
8
0
100
AcDbLine
10
-2.6684375000000067
20
0.53648784436297214
30
-1.2068269254765893e-46
11
-2.8217157287525283
21
0.53648784436297459
31
-1.9007524076255463e-45
0
ARC
5
121
100
AcDbEntity
8
0
100
AcDbCircle
10
-2.8499999999999992
20
0.54648784436297215
30
6.2083904683243913e-49
40
0.029999999999999864
210
-6.0582734383187057e-32
220
1.3535425440051979e-32
230
1
100
AcDbArc
50
19.47122063448079
51
340.52877936551943
0
LINE
5
122
100
AcDbEntity
8
0
100
AcDbLine
10
-2.8217157287525358
20
0.55648784436296717
30
1.5781842378066469e-33
11
-2.6684375000000049
21
0.55648784436297227
31
-1.9686364221836018e-45
0
LINE
5
123
100
AcDbEntity
8
0
100
AcDbLine
10
-2.6684375000000049
20
0.55648784436297227
30
-1.9686364221836018e-45
11
-2.6684375000000005
21
0.61224394489225276
31
1.7240384649665563e-47
0
ARC
5
124
100
AcDbEntity
8
0
100
AcDbCircle
10
-2.6834374999999997
20
0.61224394489225398
30
5.657001213171513e-48
40
0.014999999999999309
210
-8.010861744869171e-45
220
-8.8718351574940102e-32
230
1
100
AcDbArc
50
0
51
127.73925345774117
0
ARC
5
125
100
AcDbEntity
8
0
100
AcDbCircle
10
-2.7499999999999996
20
0.69824392218149578
30
0
40
0.093749999999999736
210
1.0144034154716048e-32
220
1.4521964819531228e-31
230
1
100
AcDbArc
50
52.260746542256044
51
307.73925345773944
0
ARC
5
126
100
AcDbEntity
8
0
100
AcDbCircle
10
-2.6834374999999935
20
0.78424389947073248
30
5.8994441223074348e-47
40
0.015000000000000312
210
-3.3973250581071082e-31
220
-6.9374637021569853e-31
230
1
100
AcDbArc
50
-127.7392534577436
51
0
0
LINE
5
127
100
AcDbEntity
8
0
100
AcDbLine
10
-2.6684374999999934
20
0.78424389947073359
30
-2.9582283945797726e-33
11
-2.6684374999999996
21
0.84767836852407397
31
3.706682699678096e-46
0
LINE
5
128
100
AcDbEntity
8
0
100
AcDbLine
10
-2.6684374999999996
20
0.84767836852407397
30
3.706682699678096e-46
11
-2.8354898747878896
21
0.83077819420414922
31
1.3123576080964271e-32
0
ARC
5
129
100
AcDbEntity
8
0
100
AcDbCircle
10
-2.8646370380421069
20
0.83788050891362686
30
4.0440824148922543e-47
40
0.029999999999999388
210
4.8508662151448156e-33
220
-3.658978615846747e-32
230
1
100
AcDbArc
50
25.248003738550448
51
346.30556246958884
0
LINE
5
130
100
AcDbEntity
8
0
100
AcDbLine
10
-2.8375029378282144
20
0.85067662573016101
30
3.3658328796986611e-34
11
-2.6687824951376795
21
0.86774555334299286
31
-1.3254618911435318e-32
0
ARC
5
131
100
AcDbEntity
8
0
100
AcDbCircle
10
-3.125000000000008
20
0.84999999999999998
30
0
40
0.45656250000000853
210
2.8792663708159429e-32
220
6.7003667826258775e-33
230
1
100
AcDbArc
50
2.2275186543338381
51
12.328608422404827
0
ARC
5
132
100
AcDbEntity
8
0
100
AcDbCircle
10
-2.6898864859529392
20
0.93720096937345743
30
-1.5354717578608393e-47
40
0.015000022228144016
210
7.9389480591751282e-31
220
5.196162298004995e-31
230
1
100
AcDbArc
50
43.279784031128713
51
146.23194308223708
0
ARC
5
133
100
AcDbEntity
8
0
100
AcDbCircle
10
-2.7802897608240156
20
0.99764772604893681
30
0
40
0.093750000000000014
210
2.6197967239481682e-31
220
-1.9635088156772015e-32
230
1
100
AcDbArc
50
80.141298381406003
51
326.23194308223691
0
ARC
5
134
100
AcDbEntity
8
0
100
AcDbCircle
10
-2.761669695005005
20
1.104791814308139
30
-1.710569414459005e-47
40
0.014999999999999946
210
1.3186624054247564e-32
220
-1.6412366396925101e-31
230
1
100
AcDbArc
50
-99.858701618593486
51
3.0934574331210163
0
ARC
5
135
100
AcDbEntity
8
0
100
AcDbCircle
10
-3.125000000000008
20
0.84999999999999998
30
0
40
0.45656248093724372
210
2.7349692839527412e-32
220
-3.8020296359624424e-32
230
1
100
AcDbArc
50
34.044634476005136
51
45.118202742585197
0
LINE
5
136
100
AcDbEntity
8
0
100
AcDbLine
10
-2.802828271186681
20
1.1735037767320375
30
7.4411352046692931e-32
11
-2.9294068452881437
21
1.0407074213321064
31
6.0662743207197141e-33
0
ARC
5
137
100
AcDbEntity
8
0
100
AcDbCircle
10
-2.956160292436798
20
1.0271334364468716
30
4.8572763392856593e-48
40
0.029999999999999905
210
-3.9429550473844522e-32
220
-1.7486645441164055e-32
230
1
100
AcDbArc
50
-294.15553790171185
51
26.902020829327398
0
LINE
5
138
100
AcDbEntity
8
0
100
AcDbLine
10
-2.9438838395523472
20
1.0545065748233138
30
9.6271938404800918e-34
11
-2.8173052654508779
21
1.1873029302232641
31
-6.0662743207292139e-33
0
ARC
5
139
100
AcDbEntity
8
0
100
AcDbCircle
10
-3.125000000000008
20
0.84999999999999998
30
0
40
0.45656250000022996
210
-8.6279575580923678e-32
220
9.6690667361014641e-32
230
1
100
AcDbArc
50
47.628280184962847
51
58.701849886016248
0
ARC
5
140
100
AcDbEntity
8
0
100
AcDbCircle
10
-2.8879104883505491
20
1.225121770404616
30
1.1691135840554459e-46
40
0.015000022228144111
210
-2.1096413920436578e-31
220
2.1867054108465682e-31
230
1
100
AcDbArc
50
89.653025489993922
51
192.60518454584641
0
ARC
5
141
100
AcDbEntity
8
0
100
AcDbCircle
10
-2.9940392891374019
20
1.2013890894868502
30
0
40
0.093750000000000153
210
9.3713103537060238e-32
220
-1.2922355834586979e-32
230
1
100
AcDbArc
50
-233.48546015488941
51
12.605184545846718
0
ARC
5
142
100
AcDbEntity
8
0
100
AcDbCircle
10
-3.058748449383184
20
1.2887921047682789
30
-6.0610727283980489e-48
40
0.014999999999999708
210
-3.087045611382832e-31
220
2.8584447423470756e-31
230
1
100
AcDbArc
50
-53.4854601548898
51
49.466698896956551
0
ARC
5
143
100
AcDbEntity
8
0
100
AcDbCircle
10
-3.125000000000008
20
0.84999999999999998
30
0
40
0.4565624809371554
210
6.6457015031929982e-32
220
-1.4553099978600421e-32
230
1
100
AcDbArc
50
80.417875939781979
51
91.491444206361876
0
LINE
5
144
100
AcDbEntity
8
0
100
AcDbLine
10
-3.1368832591883651
20
1.30640782701159
30
1.6336034777542026e-32
11
-3.1280925140531792
21
1.1231600978877305
31
3.5571344665825591e-34
0
ARC
5
145
100
AcDbEntity
8
0
100
AcDbCircle
10
-3.1367257351680782
20
1.0944291477958572
30
2.8453369197201953e-48
40
0.029999999999999818
210
-2.3952637845297413e-32
220
1.1508928671440827e-32
230
1
100
AcDbArc
50
-247.78229643794973
51
73.275262293089725
0
LINE
5
146
100
AcDbEntity
8
0
100
AcDbLine
10
-3.1480695406474957
20
1.1222017615951583
30
-5.9134709567161241e-34
11
-3.15686028578269
21
1.3054494907190315
31
-3.557134466634108e-34
0
ARC
5
147
100
AcDbEntity
8
0
100
AcDbCircle
10
-3.125000000000008
20
0.84999999999999998
30
0
40
0.45656250000014159
210
5.4002442247388296e-32
220
4.5586760594465436e-33
230
1
100
AcDbArc
50
94.001521648739953
51
105.07509134988928
0
ARC
5
148
100
AcDbEntity
8
0
100
AcDbCircle
10
-3.2329500578059482
20
1.2804353193983389
30
1.0775240406040976e-46
40
0.015000022228142522
210
4.1856198238700745e-31
220
-6.3414387672920055e-31
230
1
100
AcDbArc
50
136.0262669559873
51
238.97842600986269
0
ARC
5
149
100
AcDbEntity
8
0
100
AcDbCircle
10
-3.288995544124409
20
1.1872394720481101
30
0
40
0.093750000000000014
210
-9.4619081797144539e-32
220
1.8206114619106061e-32
230
1
100
AcDbArc
50
-187.11221869101848
51
58.978426009861622
0
ARC
5
150
100
AcDbEntity
8
0
100
AcDbCircle
10
-3.3969087733955634
20
1.2007041461351915
30
-1.3873122022777757e-47
40
0.01500000000000028
210
5.8460463627164493e-31
220
-1.6800360395132741e-31
230
1
100
AcDbArc
50
-7.1122186910192005
51
95.839940360744578
0
ARC
5
151
100
AcDbEntity
8
0
100
AcDbCircle
10
-3.125000000000008
20
0.84999999999999998
30
0
40
0.45656248093690616
210
5.8829001071055895e-32
220
3.9279047422842965e-32
230
1
100
AcDbArc
50
126.79111740357484
51
137.86468567014921
0
LINE
5
152
100
AcDbEntity
8
0
100
AcDbLine
10
-3.463569620564761
20
1.1563003892207639
30
3.6835015084739227e-32
11
-3.3248605623209597
21
1.0362303905109413
31
-3.8161864808368968e-33
0
ARC
5
153
100
AcDbEntity
8
0
100
AcDbCircle
10
-3.3100202295011076
20
1.0101580963695265
30
-6.8692157588511233e-48
40
0.029999999999999895
210
-5.011626640850519e-32
220
6.7233641603285933e-32
230
1
100
AcDbArc
50
-201.40905497414641
51
119.64850375689299
0
LINE
5
154
100
AcDbEntity
8
0
100
AcDbLine
10
-3.3379501736840793
20
1.0211088140599831
30
-2.1360011519474148e-33
11
-3.4766592319278993
21
1.1411788127698119
31
3.8161864808343275e-33
0
ARC
5
155
100
AcDbEntity
8
0
100
AcDbCircle
10
-3.125000000000008
20
0.84999999999999998
30
0
40
0.45656249999989218
210
1.0562229724996349e-32
220
-3.498911453310702e-34
230
1
100
AcDbArc
50
140.3747631125286
51
151.44833281381878
0
ARC
5
156
100
AcDbEntity
8
0
100
AcDbCircle
10
-3.511051453354828
20
1.068842533636948
30
3.8521484451596493e-47
40
0.015000022228143737
210
2.9203709510043487e-30
220
-1.0980596057175028e-32
230
1
100
AcDbArc
50
182.39950842294968
51
285.35166747394243
0
ARC
5
157
100
AcDbEntity
8
0
100
AcDbCircle
10
-3.482260679387402
20
0.96397283432224379
30
0
40
0.093750000000000097
210
6.9029485896035039e-32
220
6.8823909856974087e-32
230
1
100
AcDbArc
50
-140.73897722732681
51
105.35166747394143
0
ARC
5
158
100
AcDbEntity
8
0
100
AcDbCircle
10
-3.5664626405862259
20
0.89514992948474237
30
-1.0775240406040977e-48
40
0.015000000000000024
210
-5.2273014963047921e-31
220
-3.184527461861313e-31
230
1
100
AcDbArc
50
39.261022772673421
51
142.21318182463554
0
ARC
5
159
100
AcDbEntity
8
0
100
AcDbCircle
10
-3.125000000000008
20
0.84999999999999998
30
0
40
0.45656248093685714
210
-1.8443432743165145e-33
220
7.0758884823772495e-33
230
1
100
AcDbArc
50
173.16435886736363
51
180
0
LINE
5
160
100
AcDbEntity
8
0
100
AcDbLine
10
-3.5815624999998512
20
0.85000000000000164
30
4.7873288875106444e-32
11
-3.5815624999998805
21
0.82846752959778758
31
-1.1421754830403436e-45
0
LINE
5
161
100
AcDbEntity
8
0
100
AcDbLine
10
-3.5815624999998805
20
0.82846752959778758
30
-1.1421754830403436e-45
11
-3.4189512707488459
21
0.81890570925218831
31
7.4250877181805707e-33
0
ARC
5
162
100
AcDbEntity
8
0
100
AcDbCircle
10
-3.3913027747854247
20
0.80726265677609099
30
8.4922363450110448e-47
40
0.030000000000000093
210
5.735532870069499e-32
220
-1.0357144681016355e-31
230
1
100
AcDbArc
50
-163.89399488046672
51
157.16356385057301
0
LINE
5
163
100
AcDbEntity
8
0
100
AcDbLine
10
-3.4201252772988009
20
0.79894019627054025
30
7.9115483005102669e-34
11
-3.5815624999999081
21
0.80843298300900224
31
-7.3714807092686011e-33
0
LINE
5
164
100
AcDbEntity
8
0
100
AcDbLine
10
-3.5815624999999081
20
0.80843298300900224
30
-7.3714807092686011e-33
11
-3.5815624999999893
21
0.74829252201883689
31
-8.6374327094824466e-45
0
ARC
5
165
100
AcDbEntity
8
0
100
AcDbCircle
10
-3.5665624999999892
20
0.74829252201881646
30
1.7240384649665563e-47
40
0.015000000000000008
210
-6.9744979416860624e-43
220
-8.8718351574745387e-32
230
1
100
AcDbArc
50
180
51
307.73925345773216
0
ARC
5
166
100
AcDbEntity
8
0
100
AcDbCircle
10
-3.5
20
0.66229254472956678
30
0
40
0.093750000000000014
210
-1.1056528539420297e-31
220
-1.0739018318189882e-32
230
1
100
AcDbArc
50
-127.73925345774413
51
127.73925345773277
0
ARC
5
167
100
AcDbEntity
8
0
100
AcDbCircle
10
-3.5665625000000061
20
0.57629256744033042
30
6.7375165409913927e-61
40
0.014999999999999819
210
2.9136794340932913e-31
220
3.7645275517009692e-31
230
1
100
AcDbArc
50
52.260746542256705
51
180
0
LINE
5
168
100
AcDbEntity
8
0
100
AcDbLine
10
-3.5815625000000058
20
0.57629256744032975
30
4.7518810190637717e-46
11
-3.5815625000000031
21
0.52053646691106281
31
0
0
SPLINE
5
169
100
AcDbEntity
8
0
100
AcDbSpline
70
0
71
3
72
27
73
23
74
0
42
0.000000001
43
0.0000000001
44
0.0000000001
40
0.22125452850368901
40
0.22125452850368901
40
0.22125452850368901
40
0.22125452850368901
40
0.22220725380003448
40
0.22220725380003448
40
0.24073305330890107
40
0.24073305330890107
40
0.25925347002840743
40
0.25925347002840743
40
0.27776746577245792
40
0.27776746577245792
40
0.29627618836903069
40
0.29627618836903069
40
0.29627618836903069
40
0.31478491096560346
40
0.31478491096560346
40
0.3332989067096539
40
0.3332989067096539
40
0.35181932342916022
40
0.35181932342916022
40
0.37034512293802685
40
0.37034512293802685
40
0.37129784823437056
40
0.37129784823437056
40
0.37129784823437056
40
0.37129784823437056
10
-3.1081018108700609
20
0.019681406581177393
30
0
10
-3.1082289854128904
20
0.019683848783353993
30
0
10
-3.1083551613208424
20
0.019685039370078667
30
0
10
-3.1109113981719201
20
0.019685039370078667
30
0
10
-3.1137728345342932
20
0.019116102551371233
30
0
10
-3.1182646824436282
20
0.017256127106597453
30
0
10
-3.1206900632978387
20
0.015636222959845524
30
0
10
-3.124127297827358
20
0.012200154651232439
30
0
10
-3.1257475829625418
20
0.0097762444972422317
30
0
10
-3.1276074140866985
20
0.0052876745940233019
30
0
10
-3.128176280648868
20
0.0024289662200226696
30
0
10
-3.128176280648868
20
8.1147902648789046e-32
30
0
10
-3.128176280648868
20
-0.0024289662200226696
30
0
10
-3.1276074140866985
20
-0.0052876745940233019
30
0
10
-3.1257475829625418
20
-0.0097762444972422317
30
0
10
-3.124127297827358
20
-0.012200154651232439
30
0
10
-3.1206900632978387
20
-0.015636222959845524
30
0
10
-3.1182646824436282
20
-0.017256127106597453
30
0
10
-3.1137728345342932
20
-0.019116102551371233
30
0
10
-3.1109113981719201
20
-0.019685039370078667
30
0
10
-3.1083551613208424
20
-0.019685039370078667
30
0
10
-3.1082289854128908
20
-0.019683848783353979
30
0
10
-3.1081018108700618
20
-0.019681406581177393
30
0
0
SPLINE
5
170
100
AcDbEntity
8
0
100
AcDbSpline
70
0
71
3
72
26
73
22
74
0
42
0.000000001
43
0.0000000001
44
0.0000000001
40
-0.22318733214971764
40
-0.22318733214971764
40
-0.22318733214971764
40
-0.22318733214971764
40
-0.22223437350634934
40
-0.22223437350634934
40
-0.20370254425783257
40
-0.20370254425783257
40
-0.18517830136706043
40
-0.18517830136706043
40
-0.16666335287237294
40
-0.16666335287237294
40
-0.14815614158117046
40
-0.14815614158117046
40
-0.12964893028996799
40
-0.12964893028996799
40
-0.11113398179528053
40
-0.11113398179528053
40
-0.092609738904508382
40
-0.092609738904508382
40
-0.074077909655991633
40
-0.074077909655991633
40
-0.073124951012624548
40
-0.073124951012624548
40
-0.073124951012624548
40
-0.073124951012624548
10
-3.1081018108701559
20
-0.019681406576281257
30
0
10
-3.1079746052228043
20
-0.01968384878511064
30
0
10
-3.1078483984450442
20
-0.019685039370078667
30
0
10
-3.1052913396665822
20
-0.019685039370078667
30
0
10
-3.1024289526277582
20
-0.019116014662867421
30
0
10
-3.0979358126684375
20
-0.017255778710016347
30
0
10
-3.0955097879312254
20
-0.015635753757566106
30
0
10
-3.09207184048363
20
-0.012199511548338792
30
0
10
-3.0904512526723029
20
-0.0097756232610352739
30
0
10
-3.0885912070180805
20
-0.0052872216000245074
30
0
10
-3.0880222802002586
20
-0.0024287678859845787
30
0
10
-3.0880222802002586
20
0.0024287678859845787
30
0
10
-3.0885912070180805
20
0.0052872216000245074
30
0
10
-3.0904512526723029
20
0.0097756232610352739
30
0
10
-3.09207184048363
20
0.012199511548338792
30
0
10
-3.0955097879312254
20
0.015635753757566106
30
0
10
-3.0979358126684375
20
0.017255778710016347
30
0
10
-3.1024289526277582
20
0.019116014662867421
30
0
10
-3.1052913396665822
20
0.019685039370078667
30
0
10
-3.1078483984450442
20
0.019685039370078667
30
0
10
-3.1079746052228039
20
0.01968384878511064
30
0
10
-3.108101810870155
20
0.019681406576281268
30
0
0
SPLINE
5
171
100
AcDbEntity
8
0
100
AcDbSpline
70
0
71
3
72
27
73
23
74
0
42
0.000000001
43
0.0000000001
44
0.0000000001
40
0.22127481597801635
40
0.22127481597801635
40
0.22127481597801635
40
0.22127481597801635
40
0.22220418226278274
40
0.22220418226278274
40
0.24072931046115958
40
0.24072931046115958
40
0.25924931963698411
40
0.25924931963698411
40
0.27776322041231577
40
0.27776322041231577
40
0.29627210384053038
40
0.29627210384053038
40
0.29627210384053038
40
0.31478098726874498
40
0.31478098726874498
40
0.33329488804407664
40
0.33329488804407664
40
0.35181489721990117
40
0.35181489721990117
40
0.37034002541827804
40
0.37034002541827804
40
0.37126939170303919
40
0.37126939170303919
40
0.37126939170303919
40
0.37126939170303919
10
-3.1868947035713973
20
0.019681583778937514
30
0
10
-3.1870187118890287
20
0.019683906421615088
30
0
10
-3.1871417666371049
20
0.019685039370079017
30
0
10
-3.1896948499026094
20
0.019685039370079017
30
0
10
-3.1925561803505511
20
0.019116111972543971
30
0
10
-3.1970478869821997
20
0.017256165416557095
30
0
10
-3.1994731991177803
20
0.015636273936789759
30
0
10
-3.2029103587035559
20
0.012200223937506124
30
0
10
-3.2045306127163933
20
0.0097763109690548848
30
0
10
-3.2063904221274231
20
0.0052877227130966511
30
0
10
-3.2069592827187843
20
0.0024289873265373493
30
0
10
-3.2069592827187843
20
8.1147902648789035e-32
30
0
10
-3.2069592827187843
20
-0.0024289873265373493
30
0
10
-3.2063904221274231
20
-0.0052877227130966511
30
0
10
-3.2045306127163933
20
-0.0097763109690548848
30
0
10
-3.2029103587035559
20
-0.012200223937506124
30
0
10
-3.1994731991177803
20
-0.015636273936789759
30
0
10
-3.1970478869821997
20
-0.017256165416557095
30
0
10
-3.1925561803505511
20
-0.019116111972543971
30
0
10
-3.1896948499026094
20
-0.019685039370079017
30
0
10
-3.1871417666371054
20
-0.019685039370079017
30
0
10
-3.1870187118890296
20
-0.01968390642161506
30
0
10
-3.1868947035713986
20
-0.019681583778937514
30
0
0
SPLINE
5
172
100
AcDbEntity
8
0
100
AcDbSpline
70
0
71
3
72
26
73
22
74
0
42
0.000000001
43
0.0000000001
44
0.0000000001
40
-0.22315955804035223
40
-0.22315955804035223
40
-0.22315955804035223
40
-0.22315955804035223
40
-0.22222997526828553
40
-0.22222997526828553
40
-0.20369911385541017
40
-0.20369911385541017
40
-0.18517546966923992
40
-0.18517546966923992
40
-0.16666066481075364
40
-0.16666066481075364
40
-0.14815321719836977
40
-0.14815321719836977
40
-0.12964576958598589
40
-0.12964576958598589
40
-0.11113096472749961
40
-0.11113096472749961
40
-0.092607320541329349
40
-0.092607320541329349
40
-0.074076459128453981
40
-0.074076459128453981
40
-0.073146876356387294
40
-0.073146876356387294
40
-0.073146876356387294
40
-0.073146876356387294
10
-3.1868947035714799
20
-0.019681583774601285
30
0
10
-3.1867706664075262
20
-0.019683906423152975
30
0
10
-3.1866475830257528
20
-0.019685039370079017
30
0
10
-3.1840937189594869
20
-0.019685039370079017
30
0
10
-3.1812314845747447
20
-0.019116028463546472
30
0
10
-3.1767385498517622
20
-0.017255834222740858
30
0
10
-3.1743126259798311
20
-0.015635828001685167
30
0
10
-3.1708747892560196
20
-0.012199612821186217
30
0
10
-3.1692542478700161
20
-0.0097757207045749122
30
0
10
-3.1673942348310762
20
-0.0052872923611214174
30
0
10
-3.1668253170667899
20
-0.002428798899262976
30
0
10
-3.1668253170667899
20
0.002428798899262976
30
0
10
-3.1673942348310762
20
0.0052872923611214174
30
0
10
-3.1692542478700161
20
0.0097757207045749122
30
0
10
-3.1708747892560196
20
0.012199612821186217
30
0
10
-3.1743126259798311
20
0.015635828001685167
30
0
10
-3.1767385498517622
20
0.017255834222740858
30
0
10
-3.1812314845747447
20
0.019116028463546472
30
0
10
-3.1840937189594869
20
0.019685039370079017
30
0
10
-3.1866475830257528
20
0.019685039370079017
30
0
10
-3.1867706664075257
20
0.019683906423152979
30
0
10
-3.1868947035714781
20
0.019681583774601313
30
0
0
SPLINE
5
173
100
AcDbEntity
8
0
100
AcDbSpline
70
0
71
3
72
27
73
23
74
0
42
0.000000001
43
0.0000000001
44
0.0000000001
40
0.22129420421999679
40
0.22129420421999679
40
0.22129420421999679
40
0.22129420421999679
40
0.22220133051702745
40
0.22220133051702745
40
0.24072583534847752
40
0.24072583534847752
40
0.25924546599572951
40
0.25924546599572951
40
0.27775927853104643
40
0.27775927853104643
40
0.2962683113447499
40
0.2962683113447499
40
0.2962683113447499
40
0.31477734415845338
40
0.31477734415845338
40
0.3332911566937703
40
0.3332911566937703
40
0.35181078734102222
40
0.35181078734102222
40
0.3703352921724723
40
0.3703352921724723
40
0.37124241846950817
40
0.37124241846950817
40
0.37124241846950817
40
0.37124241846950817
10
-3.2656850524625098
20
0.019681748320766249
30
0
10
-3.2658060483368367
20
0.019683959971689709
30
0
10
-3.2659261327387696
20
0.019685039370079014
30
0
10
-3.2684762155640299
20
0.019685039370079104
30
0
10
-3.2713374476620731
20
0.01911612072284273
30
0
10
-3.275829023093217
20
0.017256200993614957
30
0
10
-3.2782542714032297
20
0.015636321280376134
30
0
10
-3.2816913613758278
20
0.012200288288295336
30
0
10
-3.2833115864762918
20
0.0097763727083458041
30
0
10
-3.2851713757141581
20
0.0052877674079972277
30
0
10
-3.2857402307574817
20
0.0024290069309322124
30
0
10
-3.2857402307574817
20
8.1147902648789035e-32
30
0
10
-3.2857402307574817
20
-0.0024290069309322124
30
0
10
-3.2851713757141581
20
-0.0052877674079972277
30
0
10
-3.2833115864762918
20
-0.0097763727083458041
30
0
10
-3.2816913613758278
20
-0.012200288288295336
30
0
10
-3.2782542714032297
20
-0.015636321280376134
30
0
10
-3.275829023093217
20
-0.017256200993614957
30
0
10
-3.2713374476620731
20
-0.01911612072284273
30
0
10
-3.2684762155640299
20
-0.019685039370079104
30
0
10
-3.2659261327387696
20
-0.019685039370079014
30
0
10
-3.2658060483368354
20
-0.019683959971689716
30
0
10
-3.2656850524625085
20
-0.019681748320766256
30
0
0
SPLINE
5
174
100
AcDbEntity
8
0
100
AcDbSpline
70
0
71
3
72
26
73
22
74
0
42
0.000000001
43
0.0000000001
44
0.0000000001
40
-0.22313321942012834
40
-0.22313321942012834
40
-0.22313321942012834
40
-0.22313321942012834
40
-0.22222589190951769
40
-0.22222589190951769
40
-0.2036959290283209
40
-0.2036959290283209
40
-0.1851728405541333
40
-0.1851728405541333
40
-0.16665816897207461
40
-0.16665816897207461
40
-0.14815050200206992
40
-0.14815050200206992
40
-0.12964283503206522
40
-0.12964283503206522
40
-0.11112816345000653
40
-0.11112816345000653
40
-0.092605074975818935
40
-0.092605074975818935
40
-0.074075112094622142
40
-0.074075112094622142
40
-0.073167784584008147
40
-0.073167784584008147
40
-0.073167784584008147
40
-0.073167784584008147
10
-3.2656850524625791
20
-0.019681748316914934
30
0
10
-3.2655640297867152
20
-0.019683959973040621
30
0
10
-3.2654439187763176
20
-0.019685039370079014
30
0
10
-3.2628930932655815
20
-0.019685039370079104
30
0
10
-3.2600310006042825
20
-0.01911604127395412
30
0
10
-3.2555382564041837
20
-0.017255885758757552
30
0
10
-3.2531124261554898
20
-0.015635896923366036
30
0
10
-3.2496746921977189
20
-0.01219970682990869
30
0
10
-3.2480541938958818
20
-0.0097758111559282258
30
0
10
-3.2461942111226607
20
-0.0052873580421386032
30
0
10
-3.2456253017588454
20
-0.0024288276863523232
30
0
10
-3.2456253017588454
20
0.0024288276863523232
30
0
10
-3.2461942111226607
20
0.0052873580421386032
30
0
10
-3.2480541938958818
20
0.0097758111559282258
30
0
10
-3.2496746921977189
20
0.01219970682990869
30
0
10
-3.2531124261554898
20
0.015635896923366036
30
0
10
-3.2555382564041837
20
0.017255885758757552
30
0
10
-3.2600310006042825
20
0.01911604127395412
30
0
10
-3.2628930932655815
20
0.019685039370079104
30
0
10
-3.2654439187763176
20
0.019685039370079014
30
0
10
-3.2655640297867157
20
0.019683959973040618
30
0
10
-3.2656850524625805
20
0.01968174831691491
30
0
0
SPLINE
5
175
100
AcDbEntity
8
0
100
AcDbSpline
70
0
71
3
72
27
73
23
74
0
42
0.000000001
43
0.0000000001
44
0.0000000001
40
0.22131275134066566
40
0.22131275134066566
40
0.22131275134066566
40
0.22131275134066566
40
0.22219867807649324
40
0.22219867807649324
40
0.24072260302441736
40
0.24072260302441736
40
0.25924188146725746
40
0.25924188146725746
40
0.27775561187019937
40
0.27775561187019937
40
0.29626478368433051
40
0.29626478368433051
40
0.29626478368433051
40
0.31477395549846166
40
0.31477395549846166
40
0.33328768590140351
40
0.33328768590140351
40
0.35180696434424363
40
0.35180696434424363
40
0.37033088929216773
40
0.37033088929216773
40
0.37121681602799861
40
0.37121681602799861
40
0.37121681602799861
40
0.37121681602799861
10
-3.3444730373204217
20
0.019681901383841852
30
0
10
-3.3445911635981265
20
0.019684009811411107
30
0
10
-3.3447084177860744
20
0.019685039370079017
30
0
10
-3.3472556424164881
20
0.019685039370079017
30
0
10
-3.3501167830254097
20
0.019116128864495638
30
0
10
-3.3546082363969036
20
0.017256234091712203
30
0
10
-3.3570334253205569
20
0.015636365327923656
30
0
10
-3.3604704505166363
20
0.012200348161547161
30
0
10
-3.3620906487102733
20
0.0097764301540005719
30
0
10
-3.3639504191726597
20
0.005287808996121573
30
0
10
-3.3645192690517205
20
0.0024290251724581519
30
0
10
-3.3645192690517205
20
8.1147902648789035e-32
30
0
10
-3.3645192690517205
20
-0.0024290251724581519
30
0
10
-3.3639504191726597
20
-0.005287808996121573
30
0
10
-3.3620906487102733
20
-0.0097764301540005719
30
0
10
-3.3604704505166363
20
-0.012200348161547161
30
0
10
-3.3570334253205569
20
-0.015636365327923656
30
0
10
-3.3546082363969036
20
-0.017256234091712203
30
0
10
-3.3501167830254097
20
-0.019116128864495638
30
0
10
-3.3472556424164881
20
-0.019685039370079017
30
0
10
-3.3447084177860744
20
-0.019685039370079017
30
0
10
-3.3445911635981265
20
-0.019684009811411111
30
0
10
-3.3444730373204217
20
-0.019681901383841852
30
0
0
SPLINE
5
176
100
AcDbEntity
8
0
100
AcDbSpline
70
0
71
3
72
26
73
22
74
0
42
0.000000001
43
0.0000000001
44
0.0000000001
40
-0.22310820814320001
40
-0.22310820814320001
40
-0.22310820814320001
40
-0.22310820814320001
40
-0.22222209406370519
40
-0.22222209406370519
40
-0.20369296687495103
40
-0.20369296687495103
40
-0.18517039514141201
40
-0.18517039514141201
40
-0.16665584744909956
40
-0.16665584744909956
40
-0.14814797649912406
40
-0.14814797649912406
40
-0.12964010554914857
40
-0.12964010554914857
40
-0.11112555785683612
40
-0.11112555785683612
40
-0.092602986123297093
40
-0.092602986123297093
40
-0.074073858934542935
40
-0.074073858934542935
40
-0.073187744855048725
40
-0.073187744855048725
40
-0.073187744855048725
40
-0.073187744855048725
10
-3.344473037320483
20
-0.019681901380411745
30
0
10
-3.3443548860972347
20
-0.019684009812601568
30
0
10
-3.3442376071394602
20
-0.019685039370079017
30
0
10
-3.3416896752144933
20
-0.019685039370079017
30
0
10
-3.3388277143655758
20
-0.019116053186639677
30
0
10
-3.3343351473489271
20
-0.017255933689125352
30
0
10
-3.3319094041587087
20
-0.015635961019579939
30
0
10
-3.3284717657541658
20
-0.012199794253144746
30
0
10
-3.326851307508508
20
-0.009775895268565293
30
0
10
-3.3249913528718724
20
-0.0052874191180765058
30
0
10
-3.3244224513168095
20
-0.0024288544553773611
30
0
10
-3.3244224513168095
20
0.0024288544553773611
30
0
10
-3.3249913528718724
20
0.0052874191180765058
30
0
10
-3.326851307508508
20
0.009775895268565293
30
0
10
-3.3284717657541658
20
0.012199794253144746
30
0
10
-3.3319094041587087
20
0.015635961019579939
30
0
10
-3.3343351473489271
20
0.017255933689125352
30
0
10
-3.3388277143655758
20
0.019116053186639677
30
0
10
-3.3416896752144933
20
0.019685039370079017
30
0
10
-3.3442376071394602
20
0.019685039370079017
30
0
10
-3.3443548860972347
20
0.019684009812601568
30
0
10
-3.344473037320483
20
0.019681901380411745
30
0
0
ENDSEC
0
SECTION
2
OBJECTS
0
DICTIONARY
5
C
100
AcDbDictionary
3
ACAD_GROUP
350
D
3
ACAD_MLINESTYLE
350
17
0
DICTIONARY
5
D
100
AcDbDictionary
0
DICTIONARY
5
1A
330
C
100
AcDbDictionary
0
DICTIONARY
5
17
100
AcDbDictionary
0
ENDSEC
0
EOF
