0
SECTION
2
HEADER
9
$INSUNITS
70
1
9
$ACADVER
1
AC1014
9
$HANDSEED
5
FFFF
0
ENDSEC
0
SECTION
2
TABLES
0
TABLE
2
VPORT
5
8
100
AcDbSymbolTable
0
ENDTAB
0
TABLE
2
LTYPE
5
5
100
AcDbSymbolTable
0
LTYPE
5
14
100
AcDbSymbolTableRecord
100
AcDbLinetypeTableRecord
2
BYBLOCK
70
0
0
LTYPE
5
15
100
AcDbSymbolTableRecord
100
AcDbLinetypeTableRecord
2
BYLAYER
70
0
0
ENDTAB
0
TABLE
2
LAYER
5
2
100
AcDbSymbolTable
70
2
0
LAYER
5
50
100
AcDbSymbolTableRecord
100
AcDbLayerTableRecord
2
0
70
0
6
CONTINUOUS
0
ENDTAB
0
TABLE
2
STYLE
5
3
100
AcDbSymbolTable
70
1
0
STYLE
5
11
100
AcDbSymbolTableRecord
100
AcDbTextStyleTableRecord
2
STANDARD
70
0
0
ENDTAB
0
TABLE
2
VIEW
5
6
100
AcDbSymbolTable
70
0
0
ENDTAB
0
TABLE
2
UCS
5
7
100
AcDbSymbolTable
70
0
0
ENDTAB
0
TABLE
2
APPID
5
9
100
AcDbSymbolTable
70
2
0
APPID
5
12
100
AcDbSymbolTableRecord
100
AcDbRegAppTableRecord
2
ACAD
70
0
0
ENDTAB
0
TABLE
2
DIMSTYLE
5
A
100
AcDbSymbolTable
70
1
0
ENDTAB
0
TABLE
2
BLOCK_RECORD
5
1
100
AcDbSymbolTable
70
1
0
BLOCK_RECORD
5
1F
100
AcDbSymbolTableRecord
100
AcDbBlockTableRecord
2
*MODEL_SPACE
0
BLOCK_RECORD
5
1B
100
AcDbSymbolTableRecord
100
AcDbBlockTableRecord
2
*PAPER_SPACE
0
ENDTAB
0
ENDSEC
0
SECTION
2
BLOCKS
0
BLOCK
5
20
100
AcDbEntity
100
AcDbBlockBegin
2
*MODEL_SPACE
0
ENDBLK
5
21
100
AcDbEntity
100
AcDbBlockEnd
0
BLOCK
5
1C
100
AcDbEntity
100
AcDbBlockBegin
2
*PAPER_SPACE
0
ENDBLK
5
1D
100
AcDbEntity
100
AcDbBlockEnd
0
ENDSEC
0
SECTION
2
ENTITIES
0
LINE
5
100
100
AcDbEntity
8
0
100
AcDbLine
10
-3.5815624999999414
20
0.40671940854717864
30
2.1854783949314103e-17
11
-3.4282842712472719
21
0.4067194085471823
31
2.1854783949314103e-17
0
ARC
5
101
100
AcDbEntity
8
0
100
AcDbCircle
10
-3.399999999999801
20
0.3967194085471849
30
2.18547839493141e-17
40
0.030000000000000585
210
3.5813929357623458e-32
220
6.2661344092355488e-31
230
1
100
AcDbArc
50
-160.5287793655196
51
160.52877936551971
0
LINE
5
102
100
AcDbEntity
8
0
100
AcDbLine
10
-3.4282842712472652
20
0.38671940854718978
30
2.1854783949314109e-17
11
-3.5815624999999414
21
0.38671940854717862
31
-3.2782175923971154e-16
0
LINE
5
103
100
AcDbEntity
8
0
100
AcDbLine
10
-3.5815624999999414
20
0.38671940854717862
30
-3.2782175923971154e-16
11
-3.5815624999999436
21
0.33096330801779195
31
2.1854783949314146e-17
0
ARC
5
104
100
AcDbEntity
8
0
100
AcDbCircle
10
-3.5665624999999435
20
0.33096330801779167
30
2.1854783949314103e-17
40
0.015000000000000008
210
2.9116421206484294e-30
220
6.7774807462869306e-31
230
1
100
AcDbArc
50
180
51
307.73925345783465
0
ARC
5
105
100
AcDbEntity
8
0
100
AcDbCircle
10
-3.4999999999998015
20
0.24496333072866125
30
2.1854783949314103e-17
40
0.093750000000000097
210
-1.6430054800843858e-33
220
7.8673811184677166e-31
230
1
100
AcDbArc
50
-127.73925345783965
51
127.73925345783483
0
ARC
5
106
100
AcDbEntity
8
0
100
AcDbCircle
10
-3.5665624999999515
20
0.15896335343953652
30
2.1854783949314103e-17
40
0.014999999999999633
210
-2.661130228533199e-30
220
-2.8494964112958852e-30
230
1
100
AcDbArc
50
52.260746542157825
51
180
0
LINE
5
107
100
AcDbEntity
8
0
100
AcDbLine
10
-3.5815624999999516
20
0.15896335343953658
30
2.1854783949314103e-17
11
-3.5815624999999529
21
0.095000000000001084
31
2.1854783949314153e-17
0
LINE
5
108
100
AcDbEntity
8
0
100
AcDbLine
10
-3.5815624999999529
20
0.095000000000001084
30
2.1854783949314153e-17
11
-3.4777436023621573
21
0.094999999999999973
31
2.1854783949314103e-17
0
ARC
5
109
100
AcDbEntity
8
0
100
AcDbCircle
10
-3.4728223425196383
20
0.094999999999999904
30
2.1854783949314103e-17
40
0.0049212598425194048
210
-4.8303799127569794e-47
220
0
230
1
100
AcDbArc
50
-90
51
180
0
LINE
5
110
100
AcDbEntity
8
0
100
AcDbLine
10
-3.4728223425196383
20
0.090078740157480505
30
2.1854783949314103e-17
11
-3.4728223425196383
21
-0.12500000000000008
31
2.1854783949314103e-17
0
LINE
5
111
100
AcDbEntity
8
0
100
AcDbLine
10
-3.4728223425196383
20
-0.12500000000000008
30
2.1854783949314103e-17
11
-2.7771776574800868
21
-0.12500000000000011
31
2.1854783949314103e-17
0
LINE
5
112
100
AcDbEntity
8
0
100
AcDbLine
10
-2.7771776574800868
20
-0.12500000000000011
30
2.1854783949314103e-17
11
-2.7771776574800864
21
0.090078740157480172
31
2.1854783949314103e-17
0
ARC
5
113
100
AcDbEntity
8
0
100
AcDbCircle
10
-2.7771776574800864
20
0.094999999999999876
30
2.1854783949314103e-17
40
0.0049212598425197544
210
8.7581154020299847e-45
220
-7.8886090522101198e-31
230
1
100
AcDbArc
50
0
51
270
0
LINE
5
114
100
AcDbEntity
8
0
100
AcDbLine
10
-2.7722563976375669
20
0.094999999999999932
30
2.1854783949314103e-17
11
-2.6684374999997718
21
0.094999999999999363
31
2.1854783949314103e-17
0
LINE
5
115
100
AcDbEntity
8
0
100
AcDbLine
10
-2.6684374999997718
20
0.094999999999999363
30
2.1854783949314103e-17
11
-2.6684374999997655
21
0.42254884761922806
31
2.1854783949313848e-17
0
ARC
5
116
100
AcDbEntity
8
0
100
AcDbCircle
10
-2.6834374999997661
20
0.42254884761922817
30
-1.5298348764519871e-16
40
0.015000000000000357
210
-1.1655884772967226e-14
220
7.0006011356313441e-29
230
1
100
AcDbArc
50
0
51
127.73925345784443
0
ARC
5
117
100
AcDbEntity
8
0
100
AcDbCircle
10
-2.7499999999998836
20
0.50854882490835895
30
2.1854783949314103e-17
40
0.093750000000042369
210
-1.6430054802918655e-33
220
7.8673811184650305e-31
230
1
100
AcDbArc
50
52.260746542167368
51
307.73925345782129
0
ARC
5
118
100
AcDbEntity
8
0
100
AcDbCircle
10
-2.6834374999997626
20
0.59454880219746176
30
2.1854783949314103e-17
40
0.014999999999922537
210
-2.6611302285458002e-30
220
-2.8494964113112977e-30
230
1
100
AcDbArc
50
232.2607465421502
51
360
0
LINE
5
119
100
AcDbEntity
8
0
100
AcDbLine
10
-2.6684374999997624
20
0.59454880219746165
30
2.1854783949314103e-17
11
-2.6684374999997611
21
0.65030490272686392
31
2.185478394931406e-17
0
LINE
5
120
100
AcDbEntity
8
0
100
AcDbLine
10
-2.6684374999997611
20
0.65030490272686392
30
2.185478394931406e-17
11
-2.8217157287524541
21
0.6503049027268526
31
2.1854783949314103e-17
0
ARC
5
121
100
AcDbEntity
8
0
100
AcDbCircle
10
-2.8499999999999246
20
0.66030490272685116
30
2.1854783949314103e-17
40
0.029999999999999853
210
3.7059965323690389e-43
220
9.7054737355093302e-31
230
1
100
AcDbArc
50
19.471220634438389
51
340.52877936551738
0
LINE
5
122
100
AcDbEntity
8
0
100
AcDbLine
10
-2.8217157287524537
20
0.6703049027268253
30
2.1854783949314094e-17
11
-2.6684374999997611
21
0.67030490272686394
31
2.1854783949314103e-17
0
LINE
5
123
100
AcDbEntity
8
0
100
AcDbLine
10
-2.6684374999997611
20
0.67030490272686394
30
2.1854783949314103e-17
11
-2.6684374999997598
21
0.72606100325624068
31
2.185478394931406e-17
0
ARC
5
124
100
AcDbEntity
8
0
100
AcDbCircle
10
-2.6834374999997594
20
0.72606100325624068
30
-1.5298348764519871e-16
40
0.014999999999999658
210
-1.1655884772967785e-14
220
2.0761864359686007e-30
230
1
100
AcDbArc
50
0
51
127.73925345785013
0
ARC
5
125
100
AcDbEntity
8
0
100
AcDbCircle
10
-2.7499999999999059
20
0.81206098054535847
30
2.1854783949314103e-17
40
0.093750000000018999
210
4.4875681582102495e-33
220
7.9507041302540441e-31
230
1
100
AcDbArc
50
54.144621920348726
51
307.7392534578392
0
ARC
5
126
100
AcDbEntity
8
0
100
AcDbCircle
10
-2.686300631557899
20
0.90020264470077538
30
2.1854783949314103e-17
40
0.014999999999966455
210
-2.7269543482215066e-30
220
-3.0187087053345407e-30
230
1
100
AcDbArc
50
-125.85537807965889
51
6.5282554048085046
0
ARC
5
127
100
AcDbEntity
8
0
100
AcDbCircle
10
-3.1249999999998406
20
0.8499999999998652
30
2.1854783949314103e-17
40
0.45656250000008408
210
-8.382659032175194e-32
220
7.7926819359856813e-31
230
1
100
AcDbArc
50
6.5282554048081138
51
16.256603642857378
0
LINE
5
128
100
AcDbEntity
8
0
100
AcDbLine
10
-2.6866919662212032
20
0.97780995239572388
30
2.1854783949314002e-17
11
-2.7920135452078765
21
0.94347637836475085
31
2.1854783949314131e-17
0
LINE
5
129
100
AcDbEntity
8
0
100
AcDbLine
10
-2.7920135452078765
20
0.94347637836475085
30
2.1854783949314131e-17
11
-2.8603450950842784
21
0.92161576022843794
31
2.1854783949314122e-17
0
ARC
5
130
100
AcDbEntity
8
0
100
AcDbCircle
10
-2.8903314094671626
20
0.92252182299185848
30
-1.5298348764519871e-16
40
0.029999999999999968
210
-4.5138386811369501e-33
220
1.0758386099204204e-30
230
1
100
AcDbArc
50
37.211725673569987
51
358.26928440460841
0
LINE
5
131
100
AcDbEntity
8
0
100
AcDbLine
10
-2.8664392243923009
20
0.94066468639178902
30
-1.5298348764519874e-16
11
-2.7981600120928438
21
0.96250856069914792
31
2.1854783949314085e-17
0
LINE
5
132
100
AcDbEntity
8
0
100
AcDbLine
10
-2.7981600120928438
20
0.96250856069914792
30
2.1854783949314085e-17
11
-2.6927102476718514
21
0.99688392164730866
31
2.1854783949314076e-17
0
ARC
5
133
100
AcDbEntity
8
0
100
AcDbCircle
10
-3.1249999999998406
20
0.8499999999998652
30
2.1854783949314103e-17
40
0.45656250000008408
210
-1.8494664830280211e-31
220
7.2601951503775595e-31
230
1
100
AcDbArc
50
18.766794100156108
51
28.444891185826275
0
ARC
5
134
100
AcDbEntity
8
0
100
AcDbCircle
10
-2.7367448449937086
20
1.0603220768664863
30
2.1854783949314103e-17
40
0.014999999999999817
210
9.6726493393871424e-30
220
6.2561464105115159e-30
230
1
100
AcDbArc
50
28.444891185824257
51
162.00198689806186
0
ARC
5
135
100
AcDbEntity
8
0
100
AcDbCircle
10
-2.8401734064506297
20
1.0939240883383015
30
2.1854783949314103e-17
40
0.093750000000000305
210
-1.5701067127205799e-32
220
7.9515831777827312e-31
230
1
100
AcDbArc
50
338.14517628267322
51
342.00198689806251
0
ARC
5
136
100
AcDbEntity
8
0
100
AcDbCircle
10
-2.8401735573007985
20
1.0939239585185432
30
2.1854783949314103e-17
40
0.093749999999999944
210
-1.7601037492726066e-33
220
7.9647999319228665e-31
230
1
100
AcDbArc
50
103.00784385349235
51
338.14528423974224
0
ARC
5
137
100
AcDbEntity
8
0
100
AcDbCircle
10
-2.8401734064506297
20
1.0939240883383015
30
2.1854783949314103e-17
40
0.093750000000000389
210
3.7890988256070312e-34
220
7.865087492930451e-31
230
1
100
AcDbArc
50
99.151185810393969
51
103.00795153889244
0
ARC
5
138
100
AcDbEntity
8
0
100
AcDbCircle
10
-2.8574690196021097
20
1.2012899314436132
30
2.18547839493141e-17
40
0.015000000000000008
210
5.355353850446534e-31
220
-4.665185275749041e-30
230
1
100
AcDbArc
50
-80.848814189604312
51
52.708281522630891
0
ARC
5
139
100
AcDbEntity
8
0
100
AcDbCircle
10
-3.1249999999998406
20
0.8499999999998652
30
2.1854783949314103e-17
40
0.45656250000008414
210
-4.4162510426923828e-17
220
3.3632730840826438e-17
230
1
100
AcDbArc
50
52.70828152263023
51
62.508168291522658
0
LINE
5
140
100
AcDbEntity
8
0
100
AcDbLine
10
-2.9142406357241573
20
1.2550059342482869
30
4.251548276127539e-17
11
-2.9953443094381194
21
1.0904483408679577
31
2.1854783949314236e-17
0
ARC
5
141
100
AcDbEntity
8
0
100
AcDbCircle
10
-3.0168180217356872
20
1.0694988855012488
30
-1.5298348764519871e-16
40
0.029999999999999753
210
-7.9468699389768413e-17
220
-7.7528559004903269e-17
230
1
100
AcDbArc
50
-276.76557235286998
51
44.291986378169469
0
LINE
5
142
100
AcDbEntity
8
0
100
AcDbLine
10
-3.013283802794871
20
1.0992899797489997
30
-1.50392967254406e-16
11
-2.9321801290809222
21
1.2638475731293191
31
2.1854783949313971e-17
0
ARC
5
143
100
AcDbEntity
8
0
100
AcDbCircle
10
-3.1249999999998406
20
0.8499999999998652
30
2.1854783949314103e-17
40
0.45656250000008414
210
-1.7487847571236885e-31
220
3.9807878851811517e-31
230
1
100
AcDbArc
50
65.018245733901011
51
74.818151155799129
0
ARC
5
144
100
AcDbEntity
8
0
100
AcDbCircle
10
-3.0093620887814603
20
1.2761517510174742
30
2.1854783949314103e-17
40
0.015000000000000161
210
-2.1801352387288764e-16
220
-8.0342894440993225e-16
230
1
100
AcDbArc
50
74.818151155800123
51
208.37536974685429
0
ARC
5
145
100
AcDbEntity
8
0
100
AcDbCircle
10
-3.1050460973601912
20
1.2244687460515746
30
1.9669305554382694e-16
40
0.093750000000000278
210
2.6742373148085651e-32
220
7.7049806592982077e-31
230
1
100
AcDbArc
50
-214.47571425769178
51
28.375369746855863
0
ARC
5
146
100
AcDbEntity
8
0
100
AcDbCircle
10
-3.1946959210688091
20
1.2860274303212533
30
2.18547839493141e-17
40
0.015000000000000827
210
-9.6087173799028361e-15
220
6.5978936149224397e-15
230
1
100
AcDbArc
50
-34.475714257692097
51
99.081504333365501
0
ARC
5
147
100
AcDbEntity
8
0
100
AcDbCircle
10
-3.1249999999998406
20
0.8499999999998652
30
2.1854783949314103e-17
40
0.45656250000008469
210
5.4815308423026673e-17
220
8.761841901566847e-18
230
1
100
AcDbArc
50
99.081504333364606
51
108.88140975528722
0
LINE
5
148
100
AcDbEntity
8
0
100
AcDbLine
10
-3.2727483884860944
20
1.2819950579647015
30
2.6168585033046842e-17
11
-3.2095915238252917
21
1.1097504125464823
31
2.1854783949314239e-17
0
ARC
5
149
100
AcDbEntity
8
0
100
AcDbCircle
10
-3.2092432191671976
20
1.0797524345501976
30
2.1854783949314103e-17
40
0.029999999999999322
210
-3.3128955955499419e-32
220
8.1241990540905926e-31
230
1
100
AcDbArc
50
-230.39233088906821
51
90.665227841998004
0
LINE
5
150
100
AcDbEntity
8
0
100
AcDbLine
10
-3.2283690327128536
20
1.1028652720267338
30
2.1854783949314085e-17
11
-3.2915258973736781
21
1.2751099174449483
31
-1.5298348764519886e-16
0
ARC
5
151
100
AcDbEntity
8
0
100
AcDbCircle
10
-3.1249999999998406
20
0.8499999999998652
30
2.1854783949314103e-17
40
0.45656250000008453
210
-1.3967472081229214e-16
220
3.56563813617421e-16
230
1
100
AcDbArc
50
111.3914871976657
51
121.19139261958651
0
ARC
5
152
100
AcDbEntity
8
0
100
AcDbCircle
10
-3.3536845584425277
20
1.2277311400137616
30
2.1854783949314103e-17
40
0.01499999999999972
210
-4.3114170704150322e-16
220
7.1214099289149825e-16
230
1
100
AcDbArc
50
121.19139261958595
51
254.74861121067323
0
ARC
5
153
100
AcDbEntity
8
0
100
AcDbCircle
10
-3.3822917461717457
20
1.1228112119246454
30
2.1854783949314103e-17
40
0.093750000000000028
210
-7.1877286966416977e-33
220
7.8734653719559934e-31
230
1
100
AcDbArc
50
-168.10247279394414
51
74.748611210673388
0
ARC
5
154
100
AcDbEntity
8
0
100
AcDbCircle
10
-3.4887055660167654
20
1.1003910993916612
30
2.1854783949314103e-17
40
0.014999999999999991
210
-1.1157936212354912e-30
220
5.8825906879207416e-31
230
1
100
AcDbArc
50
11.897527206059108
51
145.45474579713942
0
ARC
5
155
100
AcDbEntity
8
0
100
AcDbCircle
10
-3.1249999999998406
20
0.8499999999998652
30
2.1854783949314103e-17
40
0.4565625000000843
210
3.7914556657382779e-31
220
5.882156407313056e-31
230
1
100
AcDbArc
50
145.45474579714269
51
155.25465121906439
0
LINE
5
156
100
AcDbEntity
8
0
100
AcDbLine
10
-3.5396396333559159
20
1.0411106769822529
30
4.6829274310007571e-17
11
-3.3713848326939821
21
0.96798524034580413
31
2.1854783949314162e-17
0
ARC
5
157
100
AcDbEntity
8
0
100
AcDbCircle
10
-3.3494304894525508
20
0.94754002543282589
30
2.18547839493141e-17
40
0.029999999999999659
210
5.5881383749461436e-32
220
7.9533295684559467e-31
230
1
100
AcDbArc
50
-184.01908942520072
51
137.03846930579545
0
LINE
5
158
100
AcDbEntity
8
0
100
AcDbLine
10
-3.3793567120694643
20
0.94964269038067395
30
2.18547839493141e-17
11
-3.5476115127314132
21
1.022768127017144
31
2.1854783949314045e-17
0
ARC
5
159
100
AcDbEntity
8
0
100
AcDbCircle
10
-3.1249999999998406
20
0.8499999999998652
30
2.1854783949314103e-17
40
0.45656250000008408
210
-2.1006012598046251e-17
220
-5.1383220468847796e-17
230
1
100
AcDbArc
50
157.76472866144277
51
167.5646340833795
0
ARC
5
160
100
AcDbEntity
8
0
100
AcDbCircle
10
-3.5562032435205473
20
0.9450852469288501
30
2.1854783949314103e-17
40
0.01500000000000048
210
-2.8083982361290552e-16
220
6.1928393111557042e-17
230
1
100
AcDbArc
50
167.56463408337831
51
301.12185267454242
0
ARC
5
161
100
AcDbEntity
8
0
100
AcDbCircle
10
-3.4999947323844767
20
0.85198763269590527
30
2.1854783949314103e-17
40
0.093749999999999889
210
-1.6250313301110373e-33
220
7.8676160045615308e-31
230
1
100
AcDbArc
50
-127.74276298527174
51
121.12185267454566
0
ARC
5
162
100
AcDbEntity
8
0
100
AcDbCircle
10
-3.566562499999927
20
0.76599173270819976
30
2.1854783949314103e-17
40
0.015000000000000221
210
-2.6613004823641359e-30
220
-2.8493367179615156e-30
230
1
100
AcDbArc
50
52.257237014730819
51
180
0
LINE
5
163
100
AcDbEntity
8
0
100
AcDbLine
10
-3.5815624999999267
20
0.76599173270820065
30
2.1854783949314103e-17
11
-3.5815624999999298
21
0.71023329415351755
31
3.7153132713833982e-16
0
LINE
5
164
100
AcDbEntity
8
0
100
AcDbLine
10
-3.5815624999999298
20
0.71023329415351755
30
3.7153132713833982e-16
11
-3.5515624999999309
21
0.71023329416483272
31
2.1854783949314103e-17
0
LINE
5
165
100
AcDbEntity
8
0
100
AcDbLine
10
-3.5515624999999309
20
0.71023329416483272
30
2.1854783949314103e-17
11
-3.4999971926367999
21
0.71023155952930073
31
2.1854783949314103e-17
0
LINE
5
166
100
AcDbEntity
8
0
100
AcDbLine
10
-3.4999971926367999
20
0.71023155952930073
30
2.1854783949314103e-17
11
-3.4282814638950723
21
0.71023031486454158
31
2.1854783949314103e-17
0
ARC
5
167
100
AcDbEntity
8
0
100
AcDbCircle
10
-3.3999973662071996
20
0.70022982397742328
30
2.1854783949314109e-17
40
0.030000000000000523
210
-5.2336094139692102e-17
220
1.8504625400717071e-17
230
1
100
AcDbArc
50
-160.52977376436087
51
160.52778496667909
0
LINE
5
168
100
AcDbEntity
8
0
100
AcDbLine
10
-3.4282818110057427
20
0.69023031486756148
30
2.0559523753917694e-17
11
-3.4999975397474783
21
0.69023155953231297
31
2.1854783949314103e-17
0
LINE
5
169
100
AcDbEntity
8
0
100
AcDbLine
10
-3.4999975397474783
20
0.69023155953231297
30
2.1854783949314103e-17
11
-3.5515628363954037
21
0.69023329416483259
31
2.1854783949314103e-17
0
LINE
5
170
100
AcDbEntity
8
0
100
AcDbLine
10
-3.5515628363954037
20
0.69023329416483259
30
2.1854783949314103e-17
11
-3.5815624999999311
21
0.6902332941648337
31
2.1854783949314103e-17
0
LINE
5
171
100
AcDbEntity
8
0
100
AcDbLine
10
-3.5815624999999311
20
0.6902332941648337
30
2.1854783949314103e-17
11
-3.5815624999999325
21
0.63447546365484797
31
2.1854783949314146e-17
0
ARC
5
172
100
AcDbEntity
8
0
100
AcDbCircle
10
-3.5665624999999332
20
0.63447546365484797
30
2.1854783949314103e-17
40
0.014999999999999309
210
2.9116421206485573e-30
220
6.777480746287922e-31
230
1
100
AcDbArc
50
180
51
307.73925345782618
0
ARC
5
173
100
AcDbEntity
8
0
100
AcDbCircle
10
-3.4999999999998015
20
0.54847548636570864
30
2.1854783949314103e-17
40
0.093749999999999264
210
-1.643005480120513e-33
220
7.8673811184672436e-31
230
1
100
AcDbArc
50
-127.73925345783201
51
127.7392534578279
0
ARC
5
174
100
AcDbEntity
8
0
100
AcDbCircle
10
-3.5665624999999386
20
0.46247550907657448
30
2.1854783949314103e-17
40
0.015000000000000234
210
-2.6611302285324689e-30
220
-2.8494964112963494e-30
230
1
100
AcDbArc
50
52.260746542171383
51
180
0
LINE
5
175
100
AcDbEntity
8
0
100
AcDbLine
10
-3.5815624999999387
20
0.46247550907657492
30
2.1854783949314103e-17
11
-3.5815624999999414
21
0.40671940854717864
31
2.1854783949314103e-17
0
SPLINE
5
176
100
AcDbEntity
8
0
100
AcDbSpline
70
0
71
3
72
27
73
23
74
0
42
0.000000001
43
0.0000000001
44
0.0000000001
40
0.22131275134065911
40
0.22131275134065911
40
0.22131275134065911
40
0.22131275134065911
40
0.22219867807649241
40
0.22219867807649241
40
0.24072260302441842
40
0.24072260302441842
40
0.25924188146725879
40
0.25924188146725879
40
0.27775561187020081
40
0.27775561187020081
40
0.29626478368433079
40
0.29626478368433079
40
0.29626478368433079
40
0.31477395549846077
40
0.31477395549846077
40
0.33328768590140279
40
0.33328768590140279
40
0.35180696434424319
40
0.35180696434424319
40
0.37033088929216917
40
0.37033088929216917
40
0.3712168160280031
40
0.3712168160280031
40
0.3712168160280031
40
0.3712168160280031
10
-3.3444730373204186
20
0.019681901383841842
30
2.1854783949314103e-17
10
-3.3445911635981251
20
0.019684009811411128
30
3.7153132713833977e-16
10
-3.3447084177860731
20
0.019685039370079017
30
2.1854783949314103e-17
10
-3.3472556424164881
20
0.019685039370079017
30
2.1854783949314103e-17
10
-3.3501167830254097
20
0.019116128864495669
30
2.1854783949314103e-17
10
-3.3546082363969036
20
0.017256234091711897
30
-3.2782175923971154e-16
10
-3.3570334253205569
20
0.015636365327923559
30
2.1854783949314103e-17
10
-3.3604704505166367
20
0.012200348161546928
30
2.1854783949314103e-17
10
-3.3620906487102733
20
0.0097764301540002596
30
2.1854783949314103e-17
10
-3.3639504191726597
20
0.0052878089961213379
30
2.1854783949314103e-17
10
-3.3645192690517196
20
0.0024290251724580032
30
2.1854783949314103e-17
10
-3.3645192690517196
20
8.2435964595604915e-32
30
2.1854783949314103e-17
10
-3.3645192690517196
20
-0.0024290251724580032
30
2.1854783949314103e-17
10
-3.3639504191726597
20
-0.0052878089961213379
30
2.1854783949314103e-17
10
-3.3620906487102733
20
-0.0097764301540002596
30
2.1854783949314103e-17
10
-3.3604704505166367
20
-0.012200348161546928
30
2.1854783949314103e-17
10
-3.3570334253205569
20
-0.015636365327923559
30
2.1854783949314103e-17
10
-3.3546082363969036
20
-0.017256234091711897
30
-3.2782175923971154e-16
10
-3.3501167830254097
20
-0.019116128864495669
30
2.1854783949314103e-17
10
-3.3472556424164881
20
-0.019685039370079017
30
2.1854783949314103e-17
10
-3.3447084177860731
20
-0.019685039370079017
30
2.1854783949314103e-17
10
-3.3445911635981251
20
-0.019684009811411128
30
3.7153132713833977e-16
10
-3.3444730373204186
20
-0.019681901383841842
30
2.1854783949314103e-17
0
SPLINE
5
177
100
AcDbEntity
8
0
100
AcDbSpline
70
0
71
3
72
26
73
22
74
0
42
0.000000001
43
0.0000000001
44
0.0000000001
40
-0.22310820814319485
40
-0.22310820814319485
40
-0.22310820814319485
40
-0.22310820814319485
40
-0.22222209406370533
40
-0.22222209406370533
40
-0.20369296687495106
40
-0.20369296687495106
40
-0.1851703951414117
40
-0.1851703951414117
40
-0.16665584744910045
40
-0.16665584744910045
40
-0.14814797649912431
40
-0.14814797649912431
40
-0.12964010554914818
40
-0.12964010554914818
40
-0.11112555785683692
40
-0.11112555785683692
40
-0.092602986123297565
40
-0.092602986123297565
40
-0.074073858934543296
40
-0.074073858934543296
40
-0.07318774485505386
40
-0.07318774485505386
40
-0.07318774485505386
40
-0.07318774485505386
10
-3.3444730373204803
20
-0.01968190138041177
30
-3.2782175923971154e-16
10
-3.3443548860972325
20
-0.019684009812601568
30
-3.2782175923971154e-16
10
-3.3442376071394593
20
-0.019685039370079017
30
-3.2782175923971154e-16
10
-3.3416896752144924
20
-0.019685039370079017
30
2.1854783949314103e-17
10
-3.3388277143655749
20
-0.019116053186639507
30
3.7153132713833977e-16
10
-3.3343351473489262
20
-0.017255933689125164
30
-3.2782175923971154e-16
10
-3.3319094041587083
20
-0.015635961019580109
30
-3.2782175923971154e-16
10
-3.3284717657541645
20
-0.012199794253144894
30
2.1854783949314103e-17
10
-3.326851307508508
20
-0.0097758952685654786
30
2.1854783949314103e-17
10
-3.3249913528718715
20
-0.0052874191180767938
30
3.7153132713833977e-16
10
-3.3244224513168095
20
-0.0024288544553774461
30
3.7153132713833977e-16
10
-3.3244224513168095
20
0.0024288544553774461
30
3.7153132713833977e-16
10
-3.3249913528718715
20
0.0052874191180767938
30
3.7153132713833977e-16
10
-3.326851307508508
20
0.0097758952685654786
30
2.1854783949314103e-17
10
-3.3284717657541645
20
0.012199794253144894
30
2.1854783949314103e-17
10
-3.3319094041587083
20
0.015635961019580109
30
-3.2782175923971154e-16
10
-3.3343351473489262
20
0.017255933689125164
30
-3.2782175923971154e-16
10
-3.3388277143655749
20
0.019116053186639507
30
3.7153132713833977e-16
10
-3.3416896752144924
20
0.019685039370079017
30
2.1854783949314103e-17
10
-3.3442376071394593
20
0.019685039370079017
30
-3.2782175923971154e-16
10
-3.3443548860972316
20
0.019684009812601575
30
-3.2782175923971154e-16
10
-3.3444730373204803
20
0.01968190138041177
30
-3.2782175923971154e-16
0
ENDSEC
0
SECTION
2
OBJECTS
0
DICTIONARY
5
C
100
AcDbDictionary
3
ACAD_GROUP
350
D
3
ACAD_MLINESTYLE
350
17
0
DICTIONARY
5
D
100
AcDbDictionary
0
DICTIONARY
5
1A
330
C
100
AcDbDictionary
0
DICTIONARY
5
17
100
AcDbDictionary
0
ENDSEC
0
EOF
