0
SECTION
2
HEADER
9
$INSUNITS
70
1
9
$ACADVER
1
AC1014
9
$HANDSEED
5
FFFF
0
ENDSEC
0
SECTION
2
TABLES
0
TABLE
2
VPORT
5
8
100
AcDbSymbolTable
0
ENDTAB
0
TABLE
2
LTYPE
5
5
100
AcDbSymbolTable
0
LTYPE
5
14
100
AcDbSymbolTableRecord
100
AcDbLinetypeTableRecord
2
BYBLOCK
70
0
0
LTYPE
5
15
100
AcDbSymbolTableRecord
100
AcDbLinetypeTableRecord
2
BYLAYER
70
0
0
ENDTAB
0
TABLE
2
LAYER
5
2
100
AcDbSymbolTable
70
2
0
LAYER
5
50
100
AcDbSymbolTableRecord
100
AcDbLayerTableRecord
2
0
70
0
6
CONTINUOUS
0
ENDTAB
0
TABLE
2
STYLE
5
3
100
AcDbSymbolTable
70
1
0
STYLE
5
11
100
AcDbSymbolTableRecord
100
AcDbTextStyleTableRecord
2
STANDARD
70
0
0
ENDTAB
0
TABLE
2
VIEW
5
6
100
AcDbSymbolTable
70
0
0
ENDTAB
0
TABLE
2
UCS
5
7
100
AcDbSymbolTable
70
0
0
ENDTAB
0
TABLE
2
APPID
5
9
100
AcDbSymbolTable
70
2
0
APPID
5
12
100
AcDbSymbolTableRecord
100
AcDbRegAppTableRecord
2
ACAD
70
0
0
ENDTAB
0
TABLE
2
DIMSTYLE
5
A
100
AcDbSymbolTable
70
1
0
ENDTAB
0
TABLE
2
BLOCK_RECORD
5
1
100
AcDbSymbolTable
70
1
0
BLOCK_RECORD
5
1F
100
AcDbSymbolTableRecord
100
AcDbBlockTableRecord
2
*MODEL_SPACE
0
BLOCK_RECORD
5
1B
100
AcDbSymbolTableRecord
100
AcDbBlockTableRecord
2
*PAPER_SPACE
0
ENDTAB
0
ENDSEC
0
SECTION
2
BLOCKS
0
BLOCK
5
20
100
AcDbEntity
100
AcDbBlockBegin
2
*MODEL_SPACE
0
ENDBLK
5
21
100
AcDbEntity
100
AcDbBlockEnd
0
BLOCK
5
1C
100
AcDbEntity
100
AcDbBlockBegin
2
*PAPER_SPACE
0
ENDBLK
5
1D
100
AcDbEntity
100
AcDbBlockEnd
0
ENDSEC
0
SECTION
2
ENTITIES
0
SPLINE
5
100
100
AcDbEntity
8
0
100
AcDbSpline
70
0
71
3
72
14
73
10
74
0
42
0.000000001
43
0.0000000001
44
0.0000000001
40
0
40
0
40
0
40
0
40
0.039004274119905716
40
0.039004274119905716
40
0.076534416453098039
40
0.076534416453098039
40
0.11150817152999809
40
0.11150817152999809
40
0.1479783755679612
40
0.1479783755679612
40
0.1479783755679612
40
0.1479783755679612
10
-13.512477642740901
20
18.507146087180693
30
0
10
-13.507371322331963
20
18.506790719532745
30
0
10
-13.502415935355312
20
18.505478326719434
30
0
10
-13.493434179221094
20
18.501032626509829
30
0
10
-13.489500476482238
20
18.498026737914298
30
0
10
-13.483212242910721
20
18.490922563232097
30
0
10
-13.480828053143643
20
18.486980028237895
30
0
10
-13.477494339214845
20
18.47823898952154
30
0
10
-13.47665117241211
20
18.47352352071205
30
0
10
-13.47665117241211
20
18.468739198404947
30
0
0
LINE
5
101
100
AcDbEntity
8
0
100
AcDbLine
10
-13.47665117241211
20
18.46873919840495
30
0
11
-13.47665117241211
21
18.466782258707681
31
0
0
SPLINE
5
102
100
AcDbEntity
8
0
100
AcDbSpline
70
0
71
3
72
16
73
12
74
0
42
0.000000001
43
0.0000000001
44
0.0000000001
40
0
40
0
40
0
40
0
40
0.039091011328876608
40
0.039091011328876608
40
0.076367052884484782
40
0.076367052884484782
40
0.11439565369232499
40
0.11439565369232499
40
0.13752419923083115
40
0.13752419923083115
40
0.16154379149591203
40
0.16154379149591203
40
0.16154379149591203
40
0.16154379149591203
10
-13.47665117241211
20
18.466782258707681
30
0
10
-13.47665117241211
20
18.461652204727514
30
0
10
-13.477613664893557
20
18.456614184149753
30
0
10
-13.481422861824161
20
18.447369946607076
30
0
10
-13.484130996846934
20
18.443265459727503
30
0
10
-13.491022107734702
20
18.436227503976397
30
0
10
-13.495164675518456
20
18.433388914755859
30
0
10
-13.502516771468015
20
18.430225506304009
30
0
10
-13.505425420627148
20
18.429364461611751
30
0
10
-13.511508267542583
20
18.428314917412447
30
0
10
-13.514647347373934
20
18.428154957152273
30
0
10
-13.51781956162794
20
18.428375492818226
30
0
0
SPLINE
5
103
100
AcDbEntity
8
0
100
AcDbSpline
70
0
71
3
72
14
73
10
74
0
42
0.000000001
43
0.0000000001
44
0.0000000001
40
0
40
0
40
0
40
0
40
1.4856466739845557
40
1.4856466739845557
40
2.9726147103168485
40
2.9726147103168485
40
4.2349428988514664
40
4.2349428988514664
40
5.5375484703479341
40
5.5375484703479341
40
5.5375484703479341
40
5.5375484703479341
10
-13.517819803108496
20
18.428375509605011
30
0
10
-13.712317238480281
20
18.441895244598438
30
0
10
-13.901216959733116
20
18.492158516698712
30
0
10
-14.251289983857559
20
18.662761958722243
30
0
10
-14.408386714781244
20
18.781310135288926
30
0
10
-14.649294697940823
20
19.048827039081498
30
0
10
-14.739217116564024
20
19.188967745822147
30
0
10
-14.871991108053775
20
19.497636233130319
30
0
10
-14.912073132811145
20
19.664033342824599
30
0
10
-14.923920884123769
20
19.834474707280393
30
0
0
SPLINE
5
104
100
AcDbEntity
8
0
100
AcDbSpline
70
0
71
3
72
16
73
12
74
0
42
0.000000001
43
0.0000000001
44
0.0000000001
40
0
40
0
40
0
40
0
40
0.039095834432309198
40
0.039095834432309198
40
0.0763725640258405
40
0.0763725640258405
40
0.11440062605857039
40
0.11440062605857039
40
0.1375288633014736
40
0.1375288633014736
40
0.16154854020000572
40
0.16154854020000572
40
0.16154854020000572
40
0.16154854020000572
10
-14.923920884121378
20
19.834474707280197
30
0
10
-14.924276581228723
20
19.839593049587634
30
0
10
-14.923665618524449
20
19.844686302263089
30
0
10
-14.920506080087574
20
19.854173000484511
30
0
10
-14.918088912673515
20
19.858455368350025
30
0
10
-14.911702103264615
20
19.865953970263483
30
0
10
-14.907766291387262
20
19.869072737416523
30
0
10
-14.900651224591497
20
19.872738039007658
30
0
10
-14.897809295529505
20
19.873798605302895
30
0
10
-14.891813879095022
20
19.875267330070621
30
0
10
-14.888693460994475
20
19.875644583740236
30
0
10
-14.885513497444663
20
19.875644583740236
30
0
0
LINE
5
105
100
AcDbEntity
8
0
100
AcDbLine
10
-14.885513497444663
20
19.875644583740236
30
0
11
-14.883556557747397
21
19.875644583740236
31
0
0
SPLINE
5
106
100
AcDbEntity
8
0
100
AcDbSpline
70
0
71
3
72
14
73
10
74
0
42
0.000000001
43
0.0000000001
44
0.0000000001
40
0
40
0
40
0
40
0
40
0.039008721611714897
40
0.039008721611714897
40
0.076539211290323234
40
0.076539211290323234
40
0.11151095332672488
40
0.11151095332672488
40
0.14798003608233479
40
0.14798003608233479
40
0.14798003608233479
40
0.14798003608233479
10
-14.883556557747397
20
19.875644583740236
30
0
10
-14.878437302942711
20
19.875644583740236
30
0
10
-14.873402188565064
20
19.874679293908926
30
0
10
-14.864132955674162
20
19.870867482975104
30
0
10
-14.860000105105479
20
19.868141864604745
30
0
10
-14.853234172581972
20
19.861491373434735
30
0
10
-14.850582278037448
20
19.857724064195242
30
0
10
-14.846649950440845
20
19.849235927797313
30
0
10
-14.845481415235826
20
19.844590536949841
30
0
10
-14.845149020005659
20
19.839817923770191
30
0
0
SPLINE
5
107
100
AcDbEntity
8
0
100
AcDbSpline
70
0
71
3
72
14
73
10
74
0
42
0.000000001
43
0.0000000001
44
0.0000000001
40
0
40
0
40
0
40
0
40
1.4062151407095069
40
1.4062151407095069
40
2.8160401290923418
40
2.8160401290923418
40
4.0129966597505629
40
4.0129966597505629
40
5.2477172256430844
40
5.2477172256430844
40
5.2477172256430844
40
5.2477172256430844
10
-14.845149019990316
20
19.839817923771836
30
0
10
-14.832335575994321
20
19.655720632981069
30
0
10
-14.784733888367926
20
19.476920321380895
30
0
10
-14.623172469357376
20
19.145251764229176
30
0
10
-14.510788156512703
20
18.996266164787137
30
0
10
-14.257205721882746
20
18.767759471330571
30
0
10
-14.124345387103252
20
18.682430697608396
30
0
10
-13.83175478341427
20
18.556444204161703
30
0
10
-13.674037265958813
20
18.518391002058955
30
0
10
-13.512477851336948
20
18.507146101698556
30
0
0
SPLINE
5
108
100
AcDbEntity
8
0
100
AcDbSpline
70
0
71
3
72
14
73
10
74
0
42
0.000000001
43
0.0000000001
44
0.0000000001
40
0
40
0
40
0
40
0
40
0.03877936656475077
40
0.03877936656475077
40
0.076377336145887459
40
0.076377336145887459
40
0.10831548110964853
40
0.10831548110964853
40
0.14148539934378129
40
0.14148539934378129
40
0.14148539934378129
40
0.14148539934378129
10
-13.510002309561704
20
19.218871938456161
30
0
10
-13.504958841816221
20
19.218191542237932
30
0
10
-13.500124766884285
20
19.216568723222668
30
0
10
-13.491461108950537
20
19.211569647435422
30
0
10
-13.48771902153573
20
19.208310915397476
30
0
10
-13.482134445648715
20
19.201124248791604
30
0
10
-13.480134446958411
20
19.197427071030258
30
0
10
-13.477353854961056
20
19.18936657623199
30
0
10
-13.47665117241211
20
19.185067961640662
30
0
10
-13.47665117241211
20
19.180718110758463
30
0
0
LINE
5
109
100
AcDbEntity
8
0
100
AcDbLine
10
-13.476651172412108
20
19.180718110758463
30
0
11
-13.476651172388058
21
19.178746005657874
31
0
0
SPLINE
5
110
100
AcDbEntity
8
0
100
AcDbSpline
70
0
71
3
72
16
73
12
74
0
42
0.000000001
43
0.0000000001
44
0.0000000001
40
0
40
0
40
0
40
0
40
0.039058321049180389
40
0.039058321049180389
40
0.076173516325997559
40
0.076173516325997559
40
0.11424265081334034
40
0.11424265081334034
40
0.14048095039137978
40
0.14048095039137978
40
0.16796484511229084
40
0.16796484511229084
40
0.16796484511229084
40
0.16796484511229084
10
-13.476651172388058
20
19.178746005657874
30
0
10
-13.476651046528694
20
19.173620241742206
30
0
10
-13.477610291156388
20
19.168590720994391
30
0
10
-13.481412304742076
20
19.159371346305068
30
0
10
-13.484108123385431
20
19.155286421203982
30
0
10
-13.490977554700597
20
19.148251064399641
30
0
10
-13.495122289793748
20
19.145398535281252
30
0
10
-13.502840790056776
20
19.142050915566781
30
0
10
-13.50615506371064
20
19.141114263465628
30
0
10
-13.513115798348533
20
19.140117284346186
30
0
10
-13.516685798390604
20
19.140106396124736
30
0
10
-13.520285066110489
20
19.140590682373912
30
0
0
SPLINE
5
111
100
AcDbEntity
8
0
100
AcDbSpline
70
0
71
3
72
14
73
10
74
0
42
0.000000001
43
0.0000000001
44
0.0000000001
40
0
40
0
40
0
40
0
40
0.78973052693724133
40
0.78973052693724133
40
1.5843107940274219
40
1.5843107940274219
40
2.1252536142520562
40
2.1252536142520562
40
2.6802326625350181
40
2.6802326625350181
40
2.6802326625350181
40
2.6802326625350181
10
-13.520285066110254
20
19.140590682375596
30
0
10
-13.622998481489116
20
19.154412160639819
30
0
10
-13.721589972364244
20
19.187611963422775
30
0
10
-13.901994473374373
20
19.29030953077525
30
0
10
-13.981712113827715
20
19.358952492239183
30
0
10
-14.089984064556532
20
19.496364409312708
30
0
10
-14.126323814880079
20
19.557561223628472
30
0
10
-14.182719410809291
20
19.689620876449379
30
0
10
-14.202001383142854
20
19.759898401978866
30
0
10
-14.211705113231613
20
19.832010983248757
30
0
0
SPLINE
5
112
100
AcDbEntity
8
0
100
AcDbSpline
70
0
71
3
72
16
73
12
74
0
42
0.000000001
43
0.0000000001
44
0.0000000001
40
0
40
0
40
0
40
0
40
0.039067458791782653
40
0.039067458791782653
40
0.076183783518770518
40
0.076183783518770518
40
0.1142505269025248
40
0.1142505269025248
40
0.14048615179538471
40
0.14048615179538471
40
0.16796827709991105
40
0.16796827709991105
40
0.16796827709991105
40
0.16796827709991105
10
-14.211705113228707
20
19.832010983248679
30
0
10
-14.212388755413146
20
19.837092162634587
30
0
10
-14.212108571306008
20
19.842205864467651
30
0
10
-14.209568982236792
20
19.851851019888702
30
0
10
-14.207441656837172
20
19.85625890885564
30
0
10
-14.201571228279615
20
19.864146841314192
30
0
10
-14.197843901775267
20
19.867526026857302
30
0
10
-14.190641003413106
20
19.871872108602446
30
0
10
-14.187481484035503
20
19.873242002560893
30
0
10
-14.180716368376837
20
19.875157857545982
30
0
10
-14.177180004198979
20
19.875644583740236
30
0
10
-14.173548572314452
20
19.875644583740236
30
0
0
LINE
5
113
100
AcDbEntity
8
0
100
AcDbLine
10
-14.173548572314454
20
19.875644583740236
30
0
11
-14.17157764539388
21
19.875644583740236
31
0
0
SPLINE
5
114
100
AcDbEntity
8
0
100
AcDbSpline
70
0
71
3
72
14
73
10
74
0
42
0.000000001
43
0.0000000001
44
0.0000000001
40
0
40
0
40
0
40
0
40
0.038784345093627257
40
0.038784345093627257
40
0.076382850515179596
40
0.076382850515179596
40
0.10831814434272023
40
0.10831814434272023
40
0.141485382190427
40
0.141485382190427
40
0.141485382190427
40
0.141485382190427
10
-14.17157764539388
20
19.875644583740236
30
0
10
-14.166487836326477
20
19.875644583740236
30
0
10
-14.161479564340244
20
19.874682522939516
30
0
10
-14.152224745212107
20
19.870886176263468
30
0
10
-14.148080603042793
20
19.868156905744979
30
0
10
-14.141585728279113
20
19.861781446171822
30
0
10
-14.139109673104635
20
19.858385142033676
30
0
10
-14.135276669173752
20
19.85076944995982
30
0
10
-14.134005575959399
20
19.846603751389683
30
0
10
-14.133423803807345
20
19.842293343451313
30
0
0
SPLINE
5
115
100
AcDbEntity
8
0
100
AcDbSpline
70
0
71
3
72
14
73
10
74
0
42
0.000000001
43
0.0000000001
44
0.0000000001
40
0
40
0
40
0
40
0
40
0.71100211241145816
40
0.71100211241145816
40
1.4281418303124318
40
1.4281418303124318
40
1.9159284588660233
40
1.9159284588660233
40
2.4161349301563062
40
2.4161349301563062
40
2.4161349301563062
40
2.4161349301563062
10
-14.133423803782369
20
19.842293343455513
30
0
10
-14.120948654668311
20
19.749823700868642
30
0
10
-14.091020331375987
20
19.661065160080359
30
0
10
-13.998455112577249
20
19.498432518139445
30
0
10
-13.936496150143821
20
19.426463438166458
30
0
10
-13.812540000917853
20
19.328747393035588
30
0
10
-13.757365571052663
20
19.295952054030742
30
0
10
-13.638331606915292
20
19.245054838803149
30
0
10
-13.574996199771267
20
19.227640541162319
30
0
10
-13.510002496362407
20
19.218871963657509
30
0
0
SPLINE
5
116
100
AcDbEntity
8
0
100
AcDbSpline
70
0
71
3
72
16
73
12
74
0
42
0.000000001
43
0.0000000001
44
0.0000000001
40
0
40
0
40
0
40
0
40
0.039081926404227821
40
0.039081926404227821
40
0.076335754034401099
40
0.076335754034401099
40
0.11437437978892129
40
0.11437437978892129
40
0.1379619267185421
40
0.1379619267185421
40
0.16248262502438884
40
0.16248262502438884
40
0.16248262502438884
40
0.16248262502438884
10
-13.518184525365641
20
21.272976980479729
30
0
10
-13.513071602045505
20
21.273381007455299
30
0
10
-13.507975291055937
20
21.272818783417886
30
0
10
-13.498463718237007
20
21.269750732661397
30
0
10
-13.494161396515411
20
21.267375915474663
30
0
10
-13.486602251667316
20
21.261063672980427
30
0
10
-13.483443485598904
20
21.257157125311629
30
0
10
-13.479679021230636
20
21.250024881109599
30
0
10
-13.47857505199643
20
21.247134615131937
30
0
10
-13.477044171884579
20
21.241025299017505
30
0
10
-13.47665117241211
20
21.237844710032427
30
0
10
-13.47665117241211
20
21.234596894938154
30
0
0
LINE
5
117
100
AcDbEntity
8
0
100
AcDbLine
10
-13.476651172412113
20
21.234596894938154
30
0
11
-13.47665117241211
21
21.232637412109376
31
0
0
SPLINE
5
118
100
AcDbEntity
8
0
100
AcDbSpline
70
0
71
3
72
14
73
10
74
0
42
0.000000001
43
0.0000000001
44
0.0000000001
40
0
40
0
40
0
40
0
40
0.038971099696616815
40
0.038971099696616815
40
0.076510939970179492
40
0.076510939970179492
40
0.11103685208135254
40
0.11103685208135254
40
0.14701739604122174
40
0.14701739604122174
40
0.14701739604122174
40
0.14701739604122174
10
-13.47665117241211
20
21.232637412109376
30
0
10
-13.47665117241211
20
21.227523094563889
30
0
10
-13.477615883006642
20
21.222492528789122
30
0
10
-13.481424967749861
20
21.213225973641165
30
0
10
-13.484151001820017
20
21.209091435710331
30
0
10
-13.490760829355017
20
21.202365134385122
30
0
10
-13.494473103628509
20
21.199738232697317
30
0
10
-13.502831699009235
20
21.19581724812252
30
0
10
-13.507406114911154
20
21.194630889569968
30
0
10
-13.512111193499001
20
21.194258475357657
30
0
0
SPLINE
5
119
100
AcDbEntity
8
0
100
AcDbSpline
70
0
71
3
72
14
73
10
74
0
42
0.000000001
43
0.0000000001
44
0.0000000001
40
0
40
0
40
0
40
0
40
0.86984876962381907
40
0.86984876962381907
40
1.5349429915054942
40
1.5349429915054942
40
2.0717252658772383
40
2.0717252658772383
40
2.6249178961885491
40
2.6249178961885491
40
2.6249178961885491
40
2.6249178961885491
10
-13.512111193500246
20
21.194258475379986
30
0
10
-13.625908557754892
20
21.185249897562425
30
0
10
-13.799380087249816
20
21.156198085670724
30
0
10
-14.132183899045581
20
20.985003458116751
30
0
10
-14.260817752069007
20
20.883469936007739
30
0
10
-14.452003210192883
20
20.661536945823279
30
0
10
-14.52153301878349
20
20.549697155973686
30
0
10
-14.624958717285001
20
20.304884172211263
30
0
10
-14.656866448214512
20
20.173449482704232
30
0
10
-14.667521977423231
20
20.038847649075066
30
0
0
SPLINE
5
120
100
AcDbEntity
8
0
100
AcDbSpline
70
0
71
3
72
14
73
10
74
0
42
0.000000001
43
0.0000000001
44
0.0000000001
40
0
40
0
40
0
40
0
40
0.038963843995449249
40
0.038963843995449249
40
0.076505554215528432
40
0.076505554215528432
40
0.11107444813376219
40
0.11107444813376219
40
0.16483473154811679
40
0.16483473154811679
40
0.16483473154811679
40
0.16483473154811679
10
-14.667521977425475
20
20.038847649075542
30
0
10
-14.66792559348441
20
20.033750238034852
30
0
10
-14.66928415725623
20
20.028812443707611
30
0
10
-14.673812166534384
20
20.019875905457749
30
0
10
-14.676856104724635
20
20.015969083111795
30
0
10
-14.683980319444437
20
20.009781198542701
30
0
10
-14.687893634703464
20
20.00745305452482
30
0
10
-14.698721577363196
20
20.003386293131513
30
0
10
-14.704249080883455
20
20.003386293131513
30
0
10
-14.70595374828188
20
20.003386293131513
30
0
0
LINE
5
121
100
AcDbEntity
8
0
100
AcDbLine
10
-14.70595374828188
20
20.003386293131513
30
0
11
-14.707861774218751
21
20.003385021565755
31
0
0
SPLINE
5
122
100
AcDbEntity
8
0
100
AcDbSpline
70
0
71
3
72
16
73
12
74
0
42
0.000000001
43
0.0000000001
44
0.0000000001
40
0
40
0
40
0
40
0
40
0.039080852253770289
40
0.039080852253770289
40
0.076333962314534931
40
0.076333962314534931
40
0.11437221621164453
40
0.11437221621164453
40
0.13796152473629161
40
0.13796152473629161
40
0.16248434554396468
40
0.16248434554396468
40
0.16248434554396468
40
0.16248434554396468
10
-14.707861774218751
20
20.003385021565755
30
0
10
-14.712990494986961
20
20.003385021565755
30
0
10
-14.71802654116418
20
20.00434693744409
30
0
10
-14.727266656260591
20
20.008154636295163
30
0
10
-14.731368451930901
20
20.010860937551758
30
0
10
-14.738406765465594
20
20.017748933882416
30
0
10
-14.741247948759206
20
20.021892132566069
30
0
10
-14.744438961412976
20
20.029298924565296
30
0
10
-14.745311865005146
20
20.032267404322795
30
0
10
-14.746356725873948
20
20.038478851838828
30
0
10
-14.746497893800544
20
20.041680788392114
30
0
10
-14.746241926823419
20
20.044918797825055
30
0
0
SPLINE
5
123
100
AcDbEntity
8
0
100
AcDbSpline
70
0
71
3
72
14
73
10
74
0
42
0.000000001
43
0.0000000001
44
0.0000000001
40
0
40
0
40
0
40
0
40
0.92369496162180231
40
0.92369496162180231
40
1.6289277669367233
40
1.6289277669367233
40
2.1984245940962408
40
2.1984245940962408
40
2.7855540593890185
40
2.7855540593890185
40
2.7855540593890185
40
2.7855540593890185
10
-14.74624192681482
20
20.044918797824366
30
0
10
-14.736689978430885
20
20.165761683085655
30
0
10
-14.705878892215194
20
20.350355449516972
30
0
10
-14.523908633229407
20
20.704216232699153
30
0
10
-14.416076492258206
20
20.840862567833906
30
0
10
-14.18025203139144
20
21.044009711682868
30
0
10
-14.061368935564394
20
21.117886048340281
30
0
10
-13.801077423273064
20
21.227780303732445
30
0
10
-13.661312063860015
20
21.261663555914176
30
0
10
-13.518184525365315
20
21.272976980484025
30
0
0
SPLINE
5
124
100
AcDbEntity
8
0
100
AcDbSpline
70
0
71
3
72
16
73
12
74
0
42
0.000000001
43
0.0000000001
44
0.0000000001
40
0
40
0
40
0
40
0
40
0.039057745431373539
40
0.039057745431373539
40
0.07623693607878812
40
0.07623693607878812
40
0.11429815451369156
40
0.11429815451369156
40
0.13932336710120055
40
0.13932336710120055
40
0.15937681571123039
40
0.15937681571123039
40
0.15937681571123039
40
0.15937681571123039
10
-13.306239861168248
20
18.96201407591035
30
0
10
-13.311335373652973
20
18.961458707695311
30
0
10
-13.31644084763678
20
18.961868239563248
30
0
10
-13.326026475720537
20
18.964649785642763
30
0
10
-13.330387914164552
20
18.966890983319427
30
0
10
-13.338129651933947
20
18.972965945924575
30
0
10
-13.341410224173513
20
18.976777500164449
30
0
10
-13.345488360362285
20
18.983954282294235
30
0
10
-13.346733360051235
20
18.98699279552104
30
0
10
-13.348262014422428
20
18.992692292344429
30
0
10
-13.348910734586587
20
18.996078117799666
30
0
10
-13.348910734586587
20
19.000288016357423
30
0
0
LINE
5
125
100
AcDbEntity
8
0
100
AcDbLine
10
-13.348910734586587
20
19.000288016357423
30
0
11
-13.348910734586587
21
19.00225258544922
31
0
0
SPLINE
5
126
100
AcDbEntity
8
0
100
AcDbSpline
70
0
71
3
72
14
73
10
74
0
42
0.000000001
43
0.0000000001
44
0.0000000001
40
0
40
0
40
0
40
0
40
0.038865184997139514
40
0.038865184997139514
40
0.076436768496873059
40
0.076436768496873059
40
0.10956628274196825
40
0.10956628274196825
40
0.14402788306958189
40
0.14402788306958189
40
0.14402788306958189
40
0.14402788306958189
10
-13.348910734586587
20
19.00225258544922
30
0
10
-13.348910734586587
20
19.007353003427845
30
0
10
-13.34794755454824
20
19.012370875313412
30
0
10
-13.344145777208061
20
19.021630573572995
30
0
10
-13.341418046860133
20
19.025770387567935
30
0
10
-13.334934738630878
20
19.032372203306402
30
0
10
-13.331393590982444
20
19.034918923965545
30
0
10
-13.32343727889643
20
19.038797519099923
30
0
10
-13.319083690750221
20
19.040033837518862
30
0
10
-13.314590610962693
20
19.040524586524782
30
0
0
SPLINE
5
127
100
AcDbEntity
8
0
100
AcDbSpline
70
0
71
3
72
14
73
10
74
0
42
0.000000001
43
0.0000000001
44
0.0000000001
40
0
40
0
40
0
40
0
40
0.88465605990013596
40
0.88465605990013596
40
1.7750426974754618
40
1.7750426974754618
40
2.4394430166849164
40
2.4394430166849164
40
3.1223397689121635
40
3.1223397689121635
40
3.1223397689121635
40
3.1223397689121635
10
-13.314590610962696
20
19.040524586524779
30
0
10
-13.199180373414928
20
19.053130006890452
30
0
10
-13.087884461659907
20
19.087527262097542
30
0
10
-12.882929379204208
20
19.197444869331139
30
0
10
-12.791665679967986
20
19.272074598521392
30
0
10
-12.661504360163827
20
19.42868624696106
30
0
10
-12.615779058660539
20
19.50329175131159
30
0
10
-12.546221505056167
20
19.665533666343364
30
0
10
-12.523512092264662
20
19.752309476550089
30
0
10
-12.513789465133055
20
19.841325737837597
30
0
0
SPLINE
5
128
100
AcDbEntity
8
0
100
AcDbSpline
70
0
71
3
72
14
73
10
74
0
42
0.000000001
43
0.0000000001
44
0.0000000001
40
0
40
0
40
0
40
0
40
0.038863055100665074
40
0.038863055100665074
40
0.076437190856794179
40
0.076437190856794179
40
0.10956741666704037
40
0.10956741666704037
40
0.14402938653861688
40
0.14402938653861688
40
0.14402938653861688
40
0.14402938653861688
10
-12.513789465132653
20
19.841325737837504
30
0
10
-12.513235668768935
20
19.846395720277926
30
0
10
-12.511733375458267
20
19.85127908875516
30
0
10
-12.506948758899489
20
19.860071377788522
30
0
10
-12.503787467420468
20
19.863890886299281
30
0
10
-12.496625427361645
20
19.869750122642824
30
0
10
-12.492828652689971
20
19.871897448197792
30
0
10
-12.484498166104077
20
19.874889462072748
30
0
10
-12.480036048473682
20
19.87564585530599
30
0
10
-12.475516193164061
20
19.87564585530599
30
0
0
LINE
5
129
100
AcDbEntity
8
0
100
AcDbLine
10
-12.475516193164063
20
19.87564585530599
30
0
11
-12.473605232887572
21
19.875644583740236
31
0
0
SPLINE
5
130
100
AcDbEntity
8
0
100
AcDbSpline
70
0
71
3
72
16
73
12
74
0
42
0.000000001
43
0.0000000001
44
0.0000000001
40
0
40
0
40
0
40
0
40
0.014164782220098652
40
0.014164782220098652
40
0.023078068587235333
40
0.023078068587235333
40
0.032205121615476201
40
0.032205121615476201
40
0.038142610530792126
40
0.038142610530792126
40
0.04293186414989416
40
0.04293186414989416
40
0.04293186414989416
40
0.04293186414989416
10
-12.473605232887572
20
19.875644583740236
30
0
10
-12.471746337583097
20
19.875644583740236
30
0
10
-12.465621022579542
20
19.875644583740236
30
0
10
-12.453993758938152
20
19.870780513974626
30
0
10
-12.449914563312321
20
19.868058132387144
30
0
10
-12.442911345173767
20
19.861141936536157
30
0
10
-12.440084139495857
20
19.856981106545387
30
0
10
-12.436860741365082
20
19.849416530422658
30
0
10
-12.435974348709241
20
19.846289986463702
30
0
10
-12.435094657420855
20
19.840498867621701
30
0
10
-12.434830404470048
20
19.837100812203204
30
0
10
-12.435280229655449
20
19.832973683725942
30
0
0
SPLINE
5
131
100
AcDbEntity
8
0
100
AcDbSpline
70
0
71
3
72
14
73
10
74
0
42
0.000000001
43
0.0000000001
44
0.0000000001
40
0
40
0
40
0
40
0
40
0.96362675748148297
40
0.96362675748148297
40
1.9313308101482676
40
1.9313308101482676
40
2.6536928720973609
40
2.6536928720973609
40
3.3964949061622787
40
3.3964949061622787
40
3.3964949061622787
40
3.3964949061622787
10
-12.435280229655465
20
19.832973683725946
30
0
10
-12.448982412436415
20
19.707257998617109
30
0
10
-12.486413441155065
20
19.586024431705997
30
0
10
-12.606037386394249
20
19.36304569125803
30
0
10
-12.687148724169992
20
19.263887346987719
30
0
10
-12.857424900580639
20
19.122456851356109
30
0
10
-12.938553563622248
20
19.072784470070673
30
0
10
-13.11501856952281
20
18.997221789142518
30
0
10
-13.20941391491623
20
18.972567464547712
30
0
10
-13.306239861168248
20
18.962014075910325
30
0
0
SPLINE
5
132
100
AcDbEntity
8
0
100
AcDbSpline
70
0
71
3
72
14
73
10
74
0
42
0.000000001
43
0.0000000001
44
0.0000000001
40
0
40
0
40
0
40
0
40
0.038863055100473082
40
0.038863055100473082
40
0.076437190856473852
40
0.076437190856473852
40
0.10956741666656478
40
0.10956741666656478
40
0.14402938653793879
40
0.14402938653793879
40
0.14402938653793879
40
0.14402938653793879
10
-13.314591888683854
20
20.838507562585441
30
0
10
-13.319661871124248
20
20.839061358949159
30
0
10
-13.3245452396015
20
20.840563652259821
30
0
10
-13.333337528634903
20
20.845348268818626
30
0
10
-13.337157037145653
20
20.848509560297654
30
0
10
-13.343016273489184
20
20.855671600356473
30
0
10
-13.345163599044152
20
20.85946837502814
30
0
10
-13.348155612919101
20
20.867798861614034
30
0
10
-13.348912006152343
20
20.872260979244427
30
0
10
-13.348912006152343
20
20.876780834554037
30
0
0
LINE
5
133
100
AcDbEntity
8
0
100
AcDbLine
10
-13.348912006152343
20
20.87678083455404
30
0
11
-13.348910733979663
21
20.878749853574355
31
0
0
SPLINE
5
134
100
AcDbEntity
8
0
100
AcDbSpline
70
0
71
3
72
16
73
12
74
0
42
0.000000001
43
0.0000000001
44
0.0000000001
40
0
40
0
40
0
40
0
40
0.03905897199678917
40
0.03905897199678917
40
0.076238681755217544
40
0.076238681755217544
40
0.11430015871331531
40
0.11430015871331531
40
0.13931632989781953
40
0.13931632989781953
40
0.15936247046070592
40
0.15936247046070592
40
0.15936247046070592
40
0.15936247046070592
10
-13.348910733979663
20
20.878749853574355
30
0
10
-13.348909860568064
20
20.883875702843351
30
0
10
-13.347948674273082
20
20.888906745936776
30
0
10
-13.344143208241046
20
20.898134109215938
30
0
10
-13.341441894186914
20
20.902226616881766
30
0
10
-13.334562554982453
20
20.909263405165788
30
0
10
-13.330417462628255
20
20.912110946558645
30
0
10
-13.322841534807743
20
20.915385674994383
30
0
10
-13.319687044963446
20
20.916293389330136
30
0
10
-13.313857518341262
20
20.917194745028812
30
0
10
-13.310422598569163
20
20.917472544388481
30
0
10
-13.306239013464236
20
20.91701670858221
30
0
0
SPLINE
5
135
100
AcDbEntity
8
0
100
AcDbSpline
70
0
71
3
72
14
73
10
74
0
42
0.000000001
43
0.0000000001
44
0.0000000001
40
0
40
0
40
0
40
0
40
0.96362668252469741
40
0.96362668252469741
40
1.9313307837688454
40
1.9313307837688454
40
2.6536937710585935
40
2.6536937710585935
40
3.7701579568806869
40
3.7701579568806869
40
3.7701579568806869
40
3.7701579568806869
10
-13.306239013465888
20
20.917016708567093
30
0
10
-13.180523349494432
20
20.903314422640204
30
0
10
-13.05928982123473
20
20.865883294900151
30
0
10
-12.836311180720227
20
20.746259169238868
30
0
10
-12.737152897100652
20
20.665147745412249
30
0
10
-12.595722460920916
20
20.494871352198963
30
0
10
-12.546050097999681
20
20.413742533465637
30
0
10
-12.451216815934794
20
20.192273266312082
30
0
10
-12.439042234956309
20
20.080573094649363
30
0
10
-12.435280049315404
20
20.046055538549577
30
0
0
SPLINE
5
136
100
AcDbEntity
8
0
100
AcDbSpline
70
0
71
3
72
16
73
12
74
0
42
0.000000001
43
0.0000000001
44
0.0000000001
40
0
40
0
40
0
40
0
40
0.039056762372288722
40
0.039056762372288722
40
0.076232953617853594
40
0.076232953617853594
40
0.11429152145245859
40
0.11429152145245859
40
0.13931852375339271
40
0.13931852375339271
40
0.15940136060378435
40
0.15940136060378435
40
0.15940136060378435
40
0.15940136060378435
10
-12.435280049285785
20
20.046055538570045
30
0
10
-12.434724624048282
20
20.040960162075176
30
0
10
-12.435134067929967
20
20.035854816802875
30
0
10
-12.437915439998617
20
20.026269684346488
30
0
10
-12.440156438592888
20
20.021908619099921
30
0
10
-12.446230950299592
20
20.014167464895351
30
0
10
-12.450042232634997
20
20.01088715538425
30
0
10
-12.457218888537138
20
20.006809002033297
30
0
10
-12.460257621464748
20
20.005563908378367
30
0
10
-12.465961064357217
20
20.00403416988123
30
0
10
-12.469346710112299
20
20.003386293131513
30
0
10
-12.473554167203776
20
20.003386293131513
30
0
0
LINE
5
137
100
AcDbEntity
8
0
100
AcDbLine
10
-12.473554167203776
20
20.003386293131513
30
0
11
-12.475517464729817
21
20.003386293131513
31
0
0
SPLINE
5
138
100
AcDbEntity
8
0
100
AcDbSpline
70
0
71
3
72
14
73
10
74
0
42
0.000000001
43
0.0000000001
44
0.0000000001
40
0
40
0
40
0
40
0
40
0.038864087997612345
40
0.038864087997612345
40
0.076438213426654009
40
0.076438213426654009
40
0.10956839142264599
40
0.10956839142264599
40
0.14402963455687981
40
0.14402963455687981
40
0.14402963455687981
40
0.14402963455687981
10
-12.475517464729817
20
20.003386293131513
30
0
10
-12.480617738745252
20
20.003386293131513
30
0
10
-12.485635482504673
20
20.004349460950436
30
0
10
-12.494895429560634
20
20.008151152384958
30
0
10
-12.499035610477335
20
20.010879012000739
30
0
10
-12.505637871156212
20
20.017362474151085
30
0
10
-12.508184767967759
20
20.020903629421124
30
0
10
-12.512063585620652
20
20.028859876971506
30
0
10
-12.513299993795915
20
20.033213386688939
30
0
10
-12.513790737371135
20
20.037706416755405
30
0
0
SPLINE
5
139
100
AcDbEntity
8
0
100
AcDbSpline
70
0
71
3
72
14
73
10
74
0
42
0.000000001
43
0.0000000001
44
0.0000000001
40
0
40
0
40
0
40
0
40
0.88465605990014506
40
0.88465605990014506
40
1.7750426974754094
40
1.7750426974754094
40
2.4394430166852512
40
2.4394430166852512
40
3.1223397689130961
40
3.1223397689130961
40
3.1223397689130961
40
3.1223397689130961
10
-12.513790737371133
20
20.037706416755402
30
0
10
-12.526396157736805
20
20.153116654303169
30
0
10
-12.560793412943895
20
20.264412566058198
30
0
10
-12.6707110201775
20
20.469367648513899
30
0
10
-12.745340749367749
20
20.560631347750117
30
0
10
-12.901952397807461
20
20.690792667554316
30
0
10
-12.976557902157975
20
20.736517969057569
30
0
10
-13.138799817189719
20
20.806075522661935
30
0
10
-13.225575627396438
20
20.828784935453434
30
0
10
-13.314591888683951
20
20.838507562585043
30
0
0
SPLINE
5
140
100
AcDbEntity
8
0
100
AcDbSpline
70
0
71
3
72
14
73
10
74
0
42
0.000000001
43
0.0000000001
44
0.0000000001
40
0
40
0
40
0
40
0
40
0.038998879622694452
40
0.038998879622694452
40
0.076529341286486918
40
0.076529341286486918
40
0.11149789954202061
40
0.11149789954202061
40
0.14796069912899681
40
0.14796069912899681
40
0.14796069912899681
40
0.14796069912899681
10
-13.313082992692046
20
21.371882882342419
30
0
10
-13.31818860686989
20
21.372238200841142
30
0
10
-13.323143299154038
20
21.373550431681519
30
0
10
-13.332124577974794
20
21.377995634298806
30
0
10
-13.336058419888685
20
21.381001483305187
30
0
10
-13.342346532593794
20
21.388104938358897
30
0
10
-13.344730724169622
20
21.392046717211016
30
0
10
-13.348064891950566
20
21.400785826031239
30
0
10
-13.348908658232023
20
21.405500216685564
30
0
10
-13.348909462430074
20
21.410283561769166
30
0
0
LINE
5
141
100
AcDbEntity
8
0
100
AcDbLine
10
-13.348909462430074
20
21.410283561769166
30
0
11
-13.348910734586587
21
21.412247346598306
31
0
0
SPLINE
5
142
100
AcDbEntity
8
0
100
AcDbSpline
70
0
71
3
72
16
73
12
74
0
42
0.000000001
43
0.0000000001
44
0.0000000001
40
0
40
0
40
0
40
0
40
0.039088900325628347
40
0.039088900325628347
40
0.076365594381779839
40
0.076365594381779839
40
0.11439623542286717
40
0.11439623542286717
40
0.13752625952739328
40
0.13752625952739328
40
0.16154766874664492
40
0.16154766874664492
40
0.16154766874664492
40
0.16154766874664492
10
-13.348910734586587
20
21.412247346598306
30
0
10
-13.348910734586587
20
21.417377123543925
30
0
10
-13.347948276336265
20
21.422414878126329
30
0
10
-13.344139228546076
20
21.431658981422469
30
0
10
-13.341431065966299
20
21.435763570096523
30
0
10
-13.33453977684678
20
21.44280187181781
30
0
10
-13.330397006164645
20
21.445640658354673
30
0
10
-13.323044501394497
20
21.448804342378651
30
0
10
-13.320135669172197
20
21.449665477418034
30
0
10
-13.31405239239699
20
21.450715182535227
30
0
10
-13.31091304676862
20
21.450875204096132
30
0
10
-13.307740590237989
20
21.450654714657357
30
0
0
SPLINE
5
143
100
AcDbEntity
8
0
100
AcDbSpline
70
0
71
3
72
14
73
10
74
0
42
0.000000001
43
0.0000000001
44
0.0000000001
40
0
40
0
40
0
40
0
40
1.485648328371393
40
1.485648328371393
40
2.9726141583061434
40
2.9726141583061434
40
4.2349427433957434
40
4.2349427433957434
40
5.537550939415925
40
5.537550939415925
40
5.537550939415925
40
5.537550939415925
10
-13.307740590238064
20
21.450654714656334
30
0
10
-13.113242929063929
20
21.437135097160279
30
0
10
-12.924342963329694
20
21.386871905309288
30
0
10
-12.574269979733332
20
21.216268559686966
30
0
10
-12.417173509566393
20
21.097720604175866
30
0
10
-12.176265724835982
20
20.830203838671064
30
0
10
-12.086343383688698
20
20.690063053271945
30
0
10
-11.953569435609591
20
20.381394101298913
30
0
10
-11.913487488712624
20
20.214996628260081
30
0
10
-11.901639751699376
20
20.044554903639074
30
0
0
SPLINE
5
144
100
AcDbEntity
8
0
100
AcDbSpline
70
0
71
3
72
16
73
12
74
0
42
0.000000001
43
0.0000000001
44
0.0000000001
40
0
40
0
40
0
40
0
40
0.039091884333240748
40
0.039091884333240748
40
0.076368835329062579
40
0.076368835329062579
40
0.11439900534239303
40
0.11439900534239303
40
0.13752780969851616
40
0.13752780969851616
40
0.16154737921410289
40
0.16154737921410289
40
0.16154737921410289
40
0.16154737921410289
10
-11.901639751701667
20
20.044554903639263
30
0
10
-11.901284089834439
20
20.039437078518795
30
0
10
-11.901895005838259
20
20.034344345596637
30
0
10
-11.90505423129785
20
20.02485804569675
30
0
10
-11.907471354655119
20
20.02057558487693
30
0
10
-11.913858149268384
20
20.013076551548455
30
0
10
-11.917794114167997
20
20.009957452035781
30
0
10
-11.924909399117283
20
20.006291796435786
30
0
10
-11.92775137700235
20
20.005231127969758
30
0
10
-11.933746832184152
20
20.003762294864103
30
0
10
-11.936867279899868
20
20.003385021565755
30
0
10
-11.940047137988282
20
20.003385021565755
30
0
0
LINE
5
145
100
AcDbEntity
8
0
100
AcDbLine
10
-11.940047137988282
20
20.003385021565755
30
0
11
-11.942004077685546
21
20.003385021565755
31
0
0
SPLINE
5
146
100
AcDbEntity
8
0
100
AcDbSpline
70
0
71
3
72
14
73
10
74
0
42
0.000000001
43
0.0000000001
44
0.0000000001
40
0
40
0
40
0
40
0
40
0.039002761347497104
40
0.039002761347497104
40
0.07653369654026522
40
0.07653369654026522
40
0.11150824944191362
40
0.11150824944191362
40
0.14797841979409868
40
0.14797841979409868
40
0.14797841979409868
40
0.14797841979409868
10
-11.942004077685546
20
20.003385021565755
30
0
10
-11.947122550303328
20
20.003385021565755
30
0
10
-11.952156884959637
20
20.004350184442522
30
0
10
-11.961425569180545
20
20.008161475167476
30
0
10
-11.96555858821729
20
20.010887038825505
30
0
10
-11.972325153250473
20
20.017537519784479
30
0
10
-11.974977497240706
20
20.021305039311198
30
0
10
-11.978910422455149
20
20.029793471560076
30
0
10
-11.980079198084054
20
20.034438970799378
30
0
10
-11.980411618491877
20
20.0392117255799
30
0
0
SPLINE
5
147
100
AcDbEntity
8
0
100
AcDbSpline
70
0
71
3
72
14
73
10
74
0
42
0.000000001
43
0.0000000001
44
0.0000000001
40
0
40
0
40
0
40
0
40
1.4062178707563606
40
1.4062178707563606
40
2.8160447942665527
40
2.8160447942665527
40
4.0129978036352183
40
4.0129978036352183
40
5.2477140257830417
40
5.2477140257830417
40
5.2477140257830417
40
5.2477140257830417
10
-11.980411618508194
20
20.039211725578156
30
0
10
-11.993225419136067
20
20.223309350687135
30
0
10
-12.040827514434319
20
20.402109916650335
30
0
10
-12.202389818110879
20
20.733778718452793
30
0
10
-12.314774556936232
20
20.882764310436723
30
0
10
-12.568357252940185
20
21.111270392589077
30
0
10
-12.701217284905836
20
21.196598758078053
30
0
10
-12.993806987107218
20
21.322584711153795
30
0
10
-13.151523934301848
20
21.360637840140456
30
0
10
-13.313082759008433
20
21.371882866078398
30
0
0
SPLINE
5
148
100
AcDbEntity
8
0
100
AcDbSpline
70
0
71
3
72
14
73
10
74
0
42
0.000000001
43
0.0000000001
44
0.0000000001
40
0
40
0
40
0
40
0
40
1.4062131366370352
40
1.4062131366370352
40
2.8160376348404377
40
2.8160376348404377
40
4.0129950271958297
40
4.0129950271958297
40
5.247715442407582
40
5.247715442407582
40
5.247715442407582
40
5.247715442407582
10
-13.313085324161941
20
18.507146101911925
30
0
10
-13.128988307283461
20
18.51995969352409
30
0
10
-12.95018832462638
20
18.567561469319791
30
0
10
-12.618520179466898
20
18.729122994954732
30
0
10
-12.469534718039343
20
18.841507380436056
30
0
10
-12.241028058148887
20
19.095089916116944
30
0
10
-12.155699212535572
20
19.227950366055019
30
0
10
-12.029712573608235
20
19.520541008856107
30
0
10
-11.991659226212416
20
19.678258499950203
30
0
10
-11.980414161639706
20
19.839817879727832
30
0
0
SPLINE
5
149
100
AcDbEntity
8
0
100
AcDbSpline
70
0
71
3
72
14
73
10
74
0
42
0.000000001
43
0.0000000001
44
0.0000000001
40
0
40
0
40
0
40
0
40
0.038998879622314783
40
0.038998879622314783
40
0.076529341315693861
40
0.076529341315693861
40
0.11150614176461407
40
0.11150614176461407
40
0.14797828751168032
40
0.14797828751168032
40
0.14797828751168032
40
0.14797828751168032
10
-11.980414145375679
20
19.839818113411443
30
0
10
-11.980058826876959
20
19.84492372758924
30
0
10
-11.97874659603661
20
19.849878419873303
30
0
10
-11.974301393419449
20
19.858859698698364
30
0
10
-11.971295544411449
20
19.862793540616483
30
0
10
-11.964191281786697
20
19.869082368202665
30
0
10
-11.960248461808302
20
19.871466961247382
30
0
10
-11.951506916085799
20
19.874801218851974
30
0
10
-11.946791202705805
20
19.875644583740236
30
0
10
-11.942006620817057
20
19.875644583740236
30
0
0
LINE
5
150
100
AcDbEntity
8
0
100
AcDbLine
10
-11.942006620817057
20
19.875644583740236
30
0
11
-11.940048409554036
21
19.875644583740236
31
0
0
SPLINE
5
151
100
AcDbEntity
8
0
100
AcDbSpline
70
0
71
3
72
16
73
12
74
0
42
0.000000001
43
0.0000000001
44
0.0000000001
40
0
40
0
40
0
40
0
40
0.039088900325231976
40
0.039088900325231976
40
0.076365594380985835
40
0.076365594380985835
40
0.11439623542191761
40
0.11439623542191761
40
0.13752625952642039
40
0.13752625952642039
40
0.16154766874592791
40
0.16154766874592791
40
0.16154766874592791
40
0.16154766874592791
10
-11.940048409554036
20
19.875644583740236
30
0
10
-11.934918632608468
20
19.875644583740236
30
0
10
-11.929880878026037
20
19.874682125489933
30
0
10
-11.920636774729854
20
19.87087307769972
30
0
10
-11.916532186055795
20
19.868164915119916
30
0
10
-11.909493884334537
20
19.861273626000429
30
0
10
-11.906655097797671
20
19.857130855318307
30
0
10
-11.903491413773677
20
19.849778350548114
30
0
10
-11.902630278734302
20
19.846869518325793
30
0
10
-11.901580573617119
20
19.840786241550635
30
0
10
-11.90142055205621
20
19.83764689592228
30
0
10
-11.901641041494985
20
19.834474439391638
30
0
0
SPLINE
5
152
100
AcDbEntity
8
0
100
AcDbSpline
70
0
71
3
72
14
73
10
74
0
42
0.000000001
43
0.0000000001
44
0.0000000001
40
0
40
0
40
0
40
0
40
1.48564478858553
40
1.48564478858553
40
2.9726082800801095
40
2.9726082800801095
40
4.2349399774765182
40
4.2349399774765182
40
5.5375512375957703
40
5.5375512375957703
40
5.5375512375957703
40
5.5375512375957703
10
-11.901641041496008
20
19.834474439391716
30
0
10
-11.91516062677956
20
19.639977241638206
30
0
10
-11.965423697869801
20
19.451077745631821
30
0
10
-12.136026673845407
20
19.101005434530059
30
0
10
-12.254574429459717
20
18.943909203966633
30
0
10
-12.52209118034102
20
18.703001241876965
30
0
10
-12.662232327792648
20
18.61307866408789
30
0
10
-12.970902060634124
20
18.480304465024435
30
0
10
-13.137299964003748
20
18.440222498232053
30
0
10
-13.307742103890201
20
18.428374873822133
30
0
0
SPLINE
5
153
100
AcDbEntity
8
0
100
AcDbSpline
70
0
71
3
72
16
73
12
74
0
42
0.000000001
43
0.0000000001
44
0.0000000001
40
0
40
0
40
0
40
0
40
0.039093026997881516
40
0.039093026997881516
40
0.076368524566891333
40
0.076368524566891333
40
0.11439654566347129
40
0.11439654566347129
40
0.13752618602495403
40
0.13752618602495403
40
0.16154705824649196
40
0.16154705824649196
40
0.16154705824649196
40
0.16154705824649196
10
-13.307742286342165
20
18.428374861139009
30
0
10
-13.312860252598536
20
18.428019067171068
30
0
10
-13.317953146493881
20
18.428629869026519
30
0
10
-13.327439441365382
20
18.431788959605541
30
0
10
-13.331721745529963
20
18.43420592434585
30
0
10
-13.339220459395552
20
18.440592355366284
30
0
10
-13.342339386253279
20
18.444528061451887
30
0
10
-13.346005046169516
20
18.451643147777933
30
0
10
-13.347065767983432
20
18.454485220894203
30
0
10
-13.348534699183837
20
18.46048093944416
30
0
10
-13.348912006152343
20
18.463601526908221
30
0
10
-13.348912006152343
20
18.466781622924803
30
0
0
LINE
5
154
100
AcDbEntity
8
0
100
AcDbLine
10
-13.348912006152343
20
18.466781622924803
30
0
11
-13.348912006152343
21
18.468739198404947
31
0
0
SPLINE
5
155
100
AcDbEntity
8
0
100
AcDbSpline
70
0
71
3
72
14
73
10
74
0
42
0.000000001
43
0.0000000001
44
0.0000000001
40
0
40
0
40
0
40
0
40
0.039006207001325843
40
0.039006207001325843
40
0.076536490755630779
40
0.076536490755630779
40
0.1115097622910636
40
0.1115097622910636
40
0.14797860048185935
40
0.14797860048185935
40
0.14797860048185935
40
0.14797860048185935
10
-13.348912006152343
20
18.468739198404947
30
0
10
-13.348912006152343
20
18.47385812320827
30
0
10
-13.347946777644299
20
18.478892905127903
30
0
10
-13.344135220445041
20
18.48816185964888
30
0
10
-13.341409667101377
20
18.492294750426616
30
0
10
-13.334759211678628
20
18.499060952827477
30
0
10
-13.330991762860824
20
18.501713060105452
30
0
10
-13.322503495257912
20
18.505645464366147
30
0
10
-13.317858122214139
20
18.506813945312494
30
0
10
-13.313085535823554
20
18.507146087180693
30
0
0
SPLINE
5
156
100
AcDbEntity
8
0
100
AcDbSpline
70
0
71
3
72
14
73
10
74
0
42
0.000000001
43
0.0000000001
44
0.0000000001
40
0
40
0
40
0
40
0
40
0.71099862260263702
40
0.71099862260263702
40
1.4281384243086372
40
1.4281384243086372
40
1.9159268344110914
40
1.9159268344110914
40
2.4161341270411665
40
2.4161341270411665
40
2.4161341270411665
40
2.4161341270411665
10
-13.315558222736112
20
19.218871952369973
30
0
10
-13.223089034017619
20
19.231347040252309
30
0
10
-13.134330940671614
20
19.261275220103499
30
0
10
-12.971698596916285
20
19.353840073095373
30
0
10
-12.899729417579168
20
19.415798993498118
30
0
10
-12.802012997925297
20
19.539755160818391
30
0
10
-12.76921742824479
20
19.594929747933417
30
0
10
-12.718319895794044
20
19.713963945640611
30
0
10
-12.700905471200425
20
19.77729944375977
30
0
10
-12.692136844698474
20
19.8422932467419
30
0
0
SPLINE
5
157
100
AcDbEntity
8
0
100
AcDbSpline
70
0
71
3
72
14
73
10
74
0
42
0.000000001
43
0.0000000001
44
0.0000000001
40
0
40
0
40
0
40
0
40
0.03877936656479411
40
0.03877936656479411
40
0.076377336146169927
40
0.076377336146169927
40
0.10831548111009734
40
0.10831548111009734
40
0.14148539934410953
40
0.14148539934410953
40
0.14148539934410953
40
0.14148539934410953
10
-12.692136817736756
20
19.842293446590642
30
0
10
-12.691456421518529
20
19.847336914336132
30
0
10
-12.68983360250326
20
19.852170989268068
30
0
10
-12.684834526716006
20
19.86083464720183
30
0
10
-12.681575794678068
20
19.864576734616612
30
0
10
-12.674389128072233
20
19.870161310503601
30
0
10
-12.670691950310909
20
19.872161309193917
30
0
10
-12.662631455512587
20
19.874941901191296
30
0
10
-12.658332840921243
20
19.875644583740236
30
0
10
-12.653982990039063
20
19.875644583740236
30
0
0
LINE
5
158
100
AcDbEntity
8
0
100
AcDbLine
10
-12.653982990039063
20
19.875644583740236
30
0
11
-12.652013334684245
21
19.875644583740236
31
0
0
SPLINE
5
159
100
AcDbEntity
8
0
100
AcDbSpline
70
0
71
3
72
16
73
12
74
0
42
0.000000001
43
0.0000000001
44
0.0000000001
40
0
40
0
40
0
40
0
40
0.039063774100185474
40
0.039063774100185474
40
0.076180453992231917
40
0.076180453992231917
40
0.11424952582312423
40
0.11424952582312423
40
0.14048477857178013
40
0.14048477857178013
40
0.16796572112312694
40
0.16796572112312694
40
0.16796572112312694
40
0.16796572112312694
10
-12.652013334684245
20
19.875644583740236
30
0
10
-12.646886855143538
20
19.875644583740236
30
0
10
-12.641856653293688
20
19.874685097895213
30
0
10
-12.632636600660142
20
19.870882373211476
30
0
10
-12.628551642494868
20
19.868186299872765
30
0
10
-12.621516504410792
20
19.861316398331091
30
0
10
-12.618664218975445
20
19.857171554375288
30
0
10
-12.615317123280033
20
19.849453278921619
30
0
10
-12.614380670977994
20
19.846139375790262
30
0
10
-12.613383784162814
20
19.839179427625226
30
0
10
-12.613372778403907
20
19.835609823413982
30
0
10
-12.613856804805147
20
19.832010901476426
30
0
0
SPLINE
5
160
100
AcDbEntity
8
0
100
AcDbSpline
70
0
71
3
72
14
73
10
74
0
42
0.000000001
43
0.0000000001
44
0.0000000001
40
0
40
0
40
0
40
0
40
0.78972262270755689
40
0.78972262270755689
40
1.5843011937600386
40
1.5843011937600386
40
2.1252477881492955
40
2.1252477881492955
40
2.6802306343577831
40
2.6802306343577831
40
2.6802306343577831
40
2.6802306343577831
10
-12.613856804771135
20
19.8320109014719
30
0
10
-12.627677809461206
20
19.729298469017522
30
0
10
-12.660876989446679
20
19.630707837809059
30
0
10
-12.763573138573733
20
19.450303953360351
30
0
10
-12.832215636636612
20
19.370586132540353
30
0
10
-12.969627249246058
20
19.262313314364818
30
0
10
-13.03082436545794
20
19.225973045932342
30
0
10
-13.162884786832885
20
19.169576667925945
30
0
10
-13.233162775974183
20
19.150294441002508
30
0
10
-13.305275862529355
20
19.140590642920731
30
0
0
SPLINE
5
161
100
AcDbEntity
8
0
100
AcDbSpline
70
0
71
3
72
16
73
12
74
0
42
0.000000001
43
0.0000000001
44
0.0000000001
40
0
40
0
40
0
40
0
40
0.039066423104974879
40
0.039066423104974879
40
0.076184760065306917
40
0.076184760065306917
40
0.11425389707226809
40
0.11425389707226809
40
0.14048905636852246
40
0.14048905636852246
40
0.16797007323063057
40
0.16797007323063057
40
0.16797007323063057
40
0.16797007323063057
10
-13.305275862529276
20
19.140590642923637
30
0
10
-13.310356907212215
20
19.1399070188642
30
0
10
-13.315470480872413
20
19.14018720851081
30
0
10
-13.325115801127231
20
19.142726700732261
30
0
10
-13.32952398593876
20
19.144854092097692
30
0
10
-13.337412494785498
20
19.150724722838962
30
0
10
-13.34079199130702
20
19.154452234621747
30
0
10
-13.345138276090809
20
19.161655305129212
30
0
10
-13.346508185719184
20
19.164814751707262
30
0
10
-13.348424019116511
20
19.171579657040184
30
0
10
-13.348910734586587
20
19.175115908342185
30
0
10
-13.348910734586587
20
19.178747183837888
30
0
0
LINE
5
162
100
AcDbEntity
8
0
100
AcDbLine
10
-13.348910734586587
20
19.178747183837892
30
0
11
-13.348910734586587
21
19.180718110758463
31
0
0
SPLINE
5
163
100
AcDbEntity
8
0
100
AcDbSpline
70
0
71
3
72
14
73
10
74
0
42
0.000000001
43
0.0000000001
44
0.0000000001
40
0
40
0
40
0
40
0
40
0.038778583596390699
40
0.038778583596390699
40
0.076378518983757332
40
0.076378518983757332
40
0.1083174676279781
40
0.1083174676279781
40
0.14148702185833692
40
0.14148702185833692
40
0.14148702185833692
40
0.14148702185833692
10
-13.348910734586587
20
19.180718110758463
30
0
10
-13.348910734586587
20
19.185807163723869
30
0
10
-13.347948789393223
20
19.190814706757681
30
0
10
-13.344152953323686
20
19.200069141042619
30
0
10
-13.341423682434126
20
19.204213598274237
30
0
10
-13.335048044312581
20
19.210709251156544
30
0
10
-13.331651416421735
20
19.213185759426395
30
0
10
-13.32403507738243
20
19.217019233972128
30
0
10
-13.319869072682334
20
19.218290391001904
30
0
10
-13.315558325871239
20
19.218871938456161
30
0
0
SPLINE
5
164
100
AcDbEntity
8
0
100
AcDbSpline
70
0
71
3
72
16
73
12
74
0
42
0.000000001
43
0.0000000001
44
0.0000000001
40
0
40
0
40
0
40
0
40
0.03906782832445508
40
0.03906782832445508
40
0.076288611584688096
40
0.076288611584688096
40
0.11433773678085039
40
0.11433773678085039
40
0.13853385779290095
40
0.13853385779290095
40
0.15757628851143349
40
0.15757628851143349
40
0.15757628851143349
40
0.15757628851143349
10
-13.518663863528053
20
21.095130051572607
30
0
10
-13.513558244777052
20
21.095597924445368
30
0
10
-13.508458050714534
20
21.095100120263279
30
0
10
-13.498914855785712
20
21.092152960687226
30
0
10
-13.494587257027232
20
21.089834443419459
30
0
10
-13.486950120588942
20
21.083621842637825
30
0
10
-13.483739428897561
20
21.079754845754952
30
0
10
-13.479843071863378
20
21.072602018041334
30
0
10
-13.478680437403712
20
21.069648389850915
30
0
10
-13.477266308808652
20
21.06416746517872
30
0
10
-13.47665117241211
20
21.060883565283955
30
0
10
-13.47665117241211
20
21.056790040690103
30
0
0
LINE
5
165
100
AcDbEntity
8
0
100
AcDbLine
10
-13.476651172412113
20
21.056790040690107
30
0
11
-13.4766511725144
21
21.054831427342624
31
0
0
SPLINE
5
166
100
AcDbEntity
8
0
100
AcDbSpline
70
0
71
3
72
14
73
10
74
0
42
0.000000001
43
0.0000000001
44
0.0000000001
40
0
40
0
40
0
40
0
40
0.032929123337187859
40
0.032929123337187859
40
0.054987449955114988
40
0.054987449955114988
40
0.074686404428249503
40
0.074686404428249503
40
0.09519836529905705
40
0.09519836529905705
40
0.09519836529905705
40
0.09519836529905705
10
-13.4766511725144
20
21.054831427342624
30
0
10
-13.476651003761424
20
21.05051002008382
30
0
10
-13.476828264270384
20
21.046451863098206
30
0
10
-13.481581744267061
20
21.035152458768373
30
0
10
-13.484343605075701
20
21.031038496154387
30
0
10
-13.490919187821561
20
21.02445711526931
30
0
10
-13.494531766290413
20
21.021917694882294
30
0
10
-13.502639956100522
20
21.018093924072282
30
0
10
-13.507070186796925
20
21.016908926540093
30
0
10
-13.511631276889435
20
21.016490341078814
30
0
0
SPLINE
5
167
100
AcDbEntity
8
0
100
AcDbSpline
70
0
71
3
72
14
73
10
74
0
42
0.000000001
43
0.0000000001
44
0.0000000001
40
0
40
0
40
0
40
0
40
0.74725737478922061
40
0.74725737478922061
40
1.3190759592312988
40
1.3190759592312988
40
1.7617760486033229
40
1.7617760486033229
40
2.3404033571538334
40
2.3404033571538334
40
2.3404033571538334
40
2.3404033571538334
10
-13.511631276890862
20
21.01649034109947
30
0
10
-13.609286070017003
20
21.007527138142773
30
0
10
-13.758007361567394
20
20.980688238076606
30
0
10
-14.04223295721326
20
20.82995190564565
30
0
10
-14.151758545855998
20
20.741239594763748
30
0
10
-14.310775155934927
20
20.551775658265601
30
0
10
-14.367477022217416
20
20.459172160980781
30
0
10
-14.464292756872634
20
20.229649629670153
30
0
10
-14.482781046151354
20
20.114373850759513
30
0
10
-14.489757752687099
20
20.0383639724418
30
0
0
SPLINE
5
168
100
AcDbEntity
8
0
100
AcDbSpline
70
0
71
3
72
14
73
10
74
0
42
0.000000001
43
0.0000000001
44
0.0000000001
40
0
40
0
40
0
40
0
40
0.038918222006596517
40
0.038918222006596517
40
0.076471635722139469
40
0.076471635722139469
40
0.11041357799704971
40
0.11041357799704971
40
0.14575671566814569
40
0.14575671566814569
40
0.14575671566814569
40
0.14575671566814569
10
-14.489757752672212
20
20.038363972399203
30
0
10
-14.490224525495526
20
20.033277968528424
30
0
10
-14.491643552808318
20
20.028362936179743
30
0
10
-14.496279466616434
20
20.019486629576978
30
0
10
-14.499372794982861
20
20.015616199802899
30
0
10
-14.506511948580954
20
20.009568676869431
30
0
10
-14.510374131023051
20
20.007318269134178
30
0
10
-14.518886188841293
20
20.004177878468905
30
0
10
-14.52345958100252
20
20.003383750000001
30
0
10
-14.528095437141927
20
20.003383750000001
30
0
0
LINE
5
169
100
AcDbEntity
8
0
100
AcDbLine
10
-14.528095437141927
20
20.003383750000001
30
0
11
-14.530063170805564
21
20.003385022171337
31
0
0
SPLINE
5
170
100
AcDbEntity
8
0
100
AcDbSpline
70
0
71
3
72
16
73
12
74
0
42
0.000000001
43
0.0000000001
44
0.0000000001
40
0
40
0
40
0
40
0
40
0.039067997466769276
40
0.039067997466769276
40
0.076290559626919552
40
0.076290559626919552
40
0.11434069863385017
40
0.11434069863385017
40
0.138526937396414
40
0.138526937396414
40
0.15756291852888005
40
0.15756291852888005
40
0.15756291852888005
40
0.15756291852888005
10
-14.530063170805564
20
20.003385022171337
30
0
10
-14.535190204519655
20
20.003385894425882
30
0
10
-14.540223571987548
20
20.004347924415683
30
0
10
-14.549457613444934
20
20.008155284048065
30
0
10
-14.553555337914979
20
20.010859866323134
30
0
10
-14.560592754373669
20
20.017744953874345
30
0
10
-14.563436504273009
20
20.021889407209255
30
0
10
-14.566662054458313
20
20.029367491528159
30
0
10
-14.567549535933182
20
20.032413757260795
30
0
10
-14.568456820953452
20
20.037998830828485
30
0
10
-14.5687693910648
20
20.041323794953424
30
0
10
-14.568396126050146
20
20.045398546205909
30
0
0
SPLINE
5
171
100
AcDbEntity
8
0
100
AcDbSpline
70
0
71
3
72
14
73
10
74
0
42
0.000000001
43
0.0000000001
44
0.0000000001
40
0
40
0
40
0
40
0
40
1.137602523760004
40
1.137602523760004
40
2.2784112944597643
40
2.2784112944597643
40
3.1812347911132957
40
3.1812347911132957
40
4.1110408158103411
40
4.1110408158103411
40
4.1110408158103411
40
4.1110408158103411
10
-14.568396126044179
20
20.045398546205362
30
0
10
-14.554774055489322
20
20.194067446318755
30
0
10
-14.513080669864577
20
20.337886172826202
30
0
10
-14.376485232326441
20
20.603300896037421
30
0
10
-14.282898344824771
20
20.721815354785566
30
0
10
-14.080055755817076
20
20.896406861836862
30
0
10
-13.979169222985352
20
20.959466884215033
30
0
10
-13.75852444926077
20
21.05413064189522
30
0
10
-13.640089259806922
20
21.084004521104013
30
0
10
-13.518664212114899
20
21.095130019631032
30
0
0
SPLINE
5
172
100
AcDbEntity
8
0
100
AcDbSpline
70
0
71
3
72
16
73
12
74
0
42
0.000000001
43
0.0000000001
44
0.0000000001
40
0
40
0
40
0
40
0
40
0.039057726044046788
40
0.039057726044046788
40
0.076236916869377933
40
0.076236916869377933
40
0.11429813932985176
40
0.11429813932985176
40
0.13932327675007486
40
0.13932327675007486
40
0.15937668085965026
40
0.15937668085965026
40
0.15937668085965026
40
0.15937668085965026
10
-14.39028168733725
20
19.832973775421525
30
0
10
-14.390837047145665
20
19.83806928626316
30
0
10
-14.390427507213072
20
19.843174757164046
30
0
10
-14.387645947157674
20
19.852760378635331
30
0
10
-14.385404742693259
20
19.857121813775422
30
0
10
-14.379329767838222
20
19.864863542773282
30
0
10
-14.375518208107477
20
19.868144109505089
30
0
10
-14.36834142755982
20
19.872222229926411
30
0
10
-14.365302922009839
20
19.873467222267287
30
0
10
-14.359603439015576
20
19.874995868058939
30
0
10
-14.356217623829581
20
19.875644583740236
30
0
10
-14.352007739794923
20
19.875644583740236
30
0
0
LINE
5
173
100
AcDbEntity
8
0
100
AcDbLine
10
-14.352007739794919
20
19.875644583740236
30
0
11
-14.350043170703126
21
19.875644583740236
31
0
0
SPLINE
5
174
100
AcDbEntity
8
0
100
AcDbSpline
70
0
71
3
72
14
73
10
74
0
42
0.000000001
43
0.0000000001
44
0.0000000001
40
0
40
0
40
0
40
0
40
0.038865184997066933
40
0.038865184997066933
40
0.076436768496705415
40
0.076436768496705415
40
0.10956628274169752
40
0.10956628274169752
40
0.14402788306914954
40
0.14402788306914954
40
0.14402788306914954
40
0.14402788306914954
10
-14.350043170703126
20
19.875644583740236
30
0
10
-14.34494275272451
20
19.875644583740236
30
0
10
-14.339924880838934
20
19.874681403701889
30
0
10
-14.330665182579343
20
19.87087962636171
30
0
10
-14.326525368584406
20
19.868151896013774
30
0
10
-14.319923552845937
20
19.861668587784518
30
0
10
-14.317376832186795
20
19.858127440136087
30
0
10
-14.313498237052421
20
19.850171128050079
30
0
10
-14.312261918633482
20
19.845817539903869
30
0
10
-14.311771169627564
20
19.84132446011634
30
0
0
SPLINE
5
175
100
AcDbEntity
8
0
100
AcDbSpline
70
0
71
3
72
14
73
10
74
0
42
0.000000001
43
0.0000000001
44
0.0000000001
40
0
40
0
40
0
40
0
40
0.88465605990029417
40
0.88465605990029417
40
1.7750426974757381
40
1.7750426974757381
40
2.4394451084136719
40
2.4394451084136719
40
3.3058542758377132
40
3.3058542758377132
40
3.3058542758377132
40
3.3058542758377132
10
-14.311771169627569
20
19.841324460116343
30
0
10
-14.299165749261892
20
19.725914222568555
30
0
10
-14.264768494054795
20
19.61461831081354
30
0
10
-14.154850886821198
20
19.409663228357847
30
0
10
-14.080221157630953
20
19.318399529121631
30
0
10
-13.923609298494215
20
19.188238034205284
30
0
10
-13.849003536222458
20
19.142512620849992
30
0
10
-13.6646626770289
20
19.063480842755745
30
0
10
-13.572185066548604
20
19.047209408190479
30
0
10
-13.510968369728031
20
19.04052313422304
30
0
0
SPLINE
5
176
100
AcDbEntity
8
0
100
AcDbSpline
70
0
71
3
72
14
73
10
74
0
42
0.000000001
43
0.0000000001
44
0.0000000001
40
0
40
0
40
0
40
0
40
0.038853351631227231
40
0.038853351631227231
40
0.076425000337831506
40
0.076425000337831506
40
0.10955830110183451
40
0.10955830110183451
40
0.14402210030692328
40
0.14402210030692328
40
0.14402210030692328
40
0.14402210030692328
10
-13.510968369742276
20
19.040523134259434
30
0
10
-13.50589964092493
20
19.039969588500064
30
0
10
-13.501017474854205
20
19.038467756888981
30
0
10
-13.492226324620116
20
19.033684346057825
30
0
10
-13.488406863837165
20
19.030523426164049
30
0
10
-13.482547025190046
20
19.023361749701778
30
0
10
-13.480399207757388
20
19.019564718151202
30
0
10
-13.477406527664542
20
19.011233769036306
30
0
10
-13.476649900846354
20
19.006771416822833
30
0
10
-13.476649900846354
20
19.002251313883466
30
0
0
LINE
5
177
100
AcDbEntity
8
0
100
AcDbLine
10
-13.476649900846354
20
19.002251313883466
30
0
11
-13.47665117241211
21
19.000339049868
31
0
0
SPLINE
5
178
100
AcDbEntity
8
0
100
AcDbSpline
70
0
71
3
72
16
73
12
74
0
42
0.000000001
43
0.0000000001
44
0.0000000001
40
0
40
0
40
0
40
0
40
0.014164057034549406
40
0.014164057034549406
40
0.023077016496738021
40
0.023077016496738021
40
0.032203911205752542
40
0.032203911205752542
40
0.03814142762725406
40
0.03814142762725406
40
0.042930307137670258
40
0.042930307137670258
40
0.042930307137670258
40
0.042930307137670258
10
-13.47665117241211
20
19.000339049868
30
0
10
-13.47665117241211
20
18.998480249732228
30
0
10
-13.47665117241211
20
18.992355108537822
30
0
10
-13.481515143003355
20
18.980728076191443
30
0
10
-13.484237499054194
20
18.976648937048004
30
0
10
-13.491153709300303
20
18.969645737736755
30
0
10
-13.495314577271394
20
18.966818546189149
30
0
10
-13.502879297206851
20
18.963595077923777
30
0
10
-13.506005935195315
20
18.962708646033548
30
0
10
-13.51179701788231
20
18.961828865330418
30
0
10
-13.515195313177147
20
18.961564450000051
30
0
10
-13.519322982998393
20
18.962014178037197
30
0
0
SPLINE
5
179
100
AcDbEntity
8
0
100
AcDbSpline
70
0
71
3
72
14
73
10
74
0
42
0.000000001
43
0.0000000001
44
0.0000000001
40
0
40
0
40
0
40
0
40
0.96362594202969054
40
0.96362594202969054
40
1.9313283619928447
40
1.9313283619928447
40
2.6536900418942153
40
2.6536900418942153
40
3.3964919497294672
40
3.3964919497294672
40
3.3964919497294672
40
3.3964919497294672
10
-13.519322982996377
20
18.962014178055675
30
0
10
-13.645038549124575
20
18.975716464807515
30
0
10
-13.766271941078228
20
19.01314756111837
30
0
10
-13.989250255022839
20
19.132771621344745
30
0
10
-14.088408297598518
20
19.213882927999752
30
0
10
-14.229838507577442
20
19.384159006418464
30
0
10
-14.279510831746938
20
19.465287647487138
30
0
10
-14.355073581490307
20
19.641752559978556
30
0
10
-14.37972804127455
20
19.736147870011202
30
0
10
-14.390281687337536
20
19.832973775421532
30
0
0
SPLINE
5
180
100
AcDbEntity
8
0
100
AcDbSpline
70
0
71
3
72
16
73
12
74
0
42
0.000000001
43
0.0000000001
44
0.0000000001
40
0
40
0
40
0
40
0
40
0.039081925358876418
40
0.039081925358876418
40
0.076335752986009281
40
0.076335752986009281
40
0.11437437894621885
40
0.11437437894621885
40
0.13796192166987339
40
0.13796192166987339
40
0.16248261554525928
40
0.16248261554525928
40
0.16248261554525928
40
0.16248261554525928
10
-14.746241860049096
20
19.834111234441085
30
0
10
-14.746645886556932
20
19.839224157660567
30
0
10
-14.746083662072355
20
19.844320468469416
30
0
10
-14.743015610539842
20
19.853832040897419
30
0
10
-14.740640792977693
20
19.858134362419747
30
0
10
-14.734328549811904
20
19.86569350675007
30
0
10
-14.730422001846515
20
19.868852272497328
30
0
10
-14.723289757769441
20
19.872616735998221
30
0
10
-14.720399492234581
20
19.87372070484362
30
0
10
-14.71429017714364
20
19.875251584409469
30
0
10
-14.711109588727496
20
19.875644583740236
30
0
10
-14.707861774218751
20
19.875644583740236
30
0
0
LINE
5
181
100
AcDbEntity
8
0
100
AcDbLine
10
-14.707861774218751
20
19.875644583740232
30
0
11
-14.705903562955729
21
19.875644583740236
31
0
0
SPLINE
5
182
100
AcDbEntity
8
0
100
AcDbSpline
70
0
71
3
72
14
73
10
74
0
42
0.000000001
43
0.0000000001
44
0.0000000001
40
0
40
0
40
0
40
0
40
0.038970531756047685
40
0.038970531756047685
40
0.076511473481216841
40
0.076511473481216841
40
0.1110396021744314
40
0.1110396021744314
40
0.1470225556387966
40
0.1470225556387966
40
0.1470225556387966
40
0.1470225556387966
10
-14.705903562955729
20
19.875644583740236
30
0
10
-14.700789319943125
20
19.875644583740236
30
0
10
-14.695758832821369
20
19.87467987951015
30
0
10
-14.686492186260761
20
19.870870815977835
30
0
10
-14.682357508548627
20
19.868144715249123
30
0
10
-14.675630813516348
20
19.861534652482476
30
0
10
-14.673003690884826
20
19.857822161715891
30
0
10
-14.669082306904979
20
19.84946306953244
30
0
10
-14.667895773520351
20
19.844888358698039
30
0
10
-14.667523228281246
20
19.840182966231968
30
0
0
SPLINE
5
183
100
AcDbEntity
8
0
100
AcDbSpline
70
0
71
3
72
14
73
10
74
0
42
0.000000001
43
0.0000000001
44
0.0000000001
40
0
40
0
40
0
40
0
40
1.2322919794518858
40
1.2322919794518858
40
2.4689989729637398
40
2.4689989729637398
40
3.4881664103000305
40
3.4881664103000305
40
4.5385693754865084
40
4.5385693754865084
40
4.5385693754865084
40
4.5385693754865084
10
-14.667523228282622
20
19.840182966231872
30
0
10
-14.654760978292718
20
19.678969222148464
30
0
10
-14.611540913453428
20
19.522660974053185
30
0
10
-14.467154396447647
20
19.233206183617789
30
0
10
-14.367330091907396
20
19.103444945607343
30
0
10
-14.145971028233374
20
18.907817356340569
30
0
10
-14.032524967290266
20
18.835770537315558
30
0
10
-13.783456494993095
20
18.728638181217587
30
0
10
-13.649447576851296
20
18.695644617717139
30
0
10
-13.512113854995009
20
18.684772511523228
30
0
0
SPLINE
5
184
100
AcDbEntity
8
0
100
AcDbSpline
70
0
71
3
72
14
73
10
74
0
42
0.000000001
43
0.0000000001
44
0.0000000001
40
0
40
0
40
0
40
0
40
0.038968724220145273
40
0.038968724220145273
40
0.076510294707373916
40
0.076510294707373916
40
0.11102936937759603
40
0.11102936937759603
40
0.14700120181032161
40
0.14700120181032161
40
0.14700120181032161
40
0.14700120181032161
10
-13.512113854995308
20
18.684772511521835
30
0
10
-13.507015804954705
20
18.6843688518405
30
0
10
-13.50207738263274
20
18.683010143872451
30
0
10
-13.493140385963306
20
18.67848170021734
30
0
10
-13.489233659148821
20
18.675437728607172
30
0
10
-13.483050308340395
20
18.668318263622432
30
0
10
-13.480724762313079
20
18.664411168201106
30
0
10
-13.477475435124532
20
18.655771457676128
30
0
10
-13.476653236959791
20
18.651118936263948
30
0
10
-13.476652444566131
20
18.646400292793334
30
0
0
LINE
5
185
100
AcDbEntity
8
0
100
AcDbLine
10
-13.476652444566135
20
18.646400292793334
30
0
11
-13.47665117241211
21
18.644433981933595
31
0
0
SPLINE
5
186
100
AcDbEntity
8
0
100
AcDbSpline
70
0
71
3
72
16
73
12
74
0
42
0.000000001
43
0.0000000001
44
0.0000000001
40
0
40
0
40
0
40
0
40
0.039080243279091542
40
0.039080243279091542
40
0.076333741181372455
40
0.076333741181372455
40
0.11437225838597326
40
0.11437225838597326
40
0.13796024054808353
40
0.13796024054808353
40
0.16248117463715958
40
0.16248117463715958
40
0.16248117463715958
40
0.16248117463715958
10
-13.47665117241211
20
18.644433981933595
30
0
10
-13.47665117241211
20
18.639305341083318
30
0
10
-13.477613074543347
20
18.634269374400979
30
0
10
-13.481420709400732
20
18.625029263152001
30
0
10
-13.484127017870536
20
18.620927394454654
30
0
10
-13.491015007511081
20
18.613888959302763
30
0
10
-13.495158216410159
20
18.611047696053042
30
0
10
-13.502564856891702
20
18.607856707973557
30
0
10
-13.505533161661969
20
18.606983832608382
30
0
10
-13.511744182300893
20
18.605939025537438
30
0
10
-13.514945878722189
20
18.60579787191471
30
0
10
-13.518183588801463
20
18.606053822346372
30
0
0
SPLINE
5
187
100
AcDbEntity
8
0
100
AcDbSpline
70
0
71
3
72
14
73
10
74
0
42
0.000000001
43
0.0000000001
44
0.0000000001
40
0
40
0
40
0
40
0
40
0.92688876067544512
40
0.92688876067544512
40
1.6355380155565356
40
1.6355380155565356
40
2.2077895936369916
40
2.2077895936369916
40
2.7977585659577313
40
2.7977585659577313
40
2.7977585659577313
40
2.7977585659577313
10
-13.518183588800712
20
18.606053822355832
30
0
10
-13.639444286404483
20
18.615639027110582
30
0
10
-13.823898089685391
20
18.646559989585977
30
0
10
-14.177482712274342
20
18.828389079996896
30
0
10
-14.314129304755316
20
18.936221827115514
30
0
10
-14.517275939124135
20
19.172046685941925
30
0
10
-14.591151828088677
20
19.290929376646833
30
0
10
-14.701045398910352
20
19.55121977204297
30
0
10
-14.734928471341043
20
19.690984422201584
30
0
10
-14.746241860053484
20
19.834111234441405
30
0
0
SPLINE
5
188
100
AcDbEntity
8
0
100
AcDbSpline
70
0
71
3
72
14
73
10
74
0
42
0.000000001
43
0.0000000001
44
0.0000000001
40
0
40
0
40
0
40
0
40
0.038778898357776904
40
0.038778898357776904
40
0.07637947471028661
40
0.07637947471028661
40
0.10831781943014655
40
0.10831781943014655
40
0.14148697561120599
40
0.14148697561120599
40
0.14148697561120599
40
0.14148697561120599
10
-14.133425089261941
20
20.036737430281104
30
0
10
-14.134105477265329
20
20.031694023428489
30
0
10
-14.135728291378069
20
20.026859992855346
30
0
10
-14.140727376536407
20
20.018196009581029
30
0
10
-14.143986295673063
20
20.014453576705893
30
0
10
-14.151173155426987
20
20.008868646199268
30
0
10
-14.154870314724329
20
20.006868525075507
30
0
10
-14.162930674665439
20
20.004087777222875
30
0
10
-14.167229170116203
20
20.003385021565755
30
0
10
-14.171578916959634
20
20.003385021565755
30
0
0
LINE
5
189
100
AcDbEntity
8
0
100
AcDbLine
10
-14.171578916959634
20
20.003385021565755
30
0
11
-14.173549843880208
21
20.003385021565755
31
0
0
SPLINE
5
190
100
AcDbEntity
8
0
100
AcDbSpline
70
0
71
3
72
16
73
12
74
0
42
0.000000001
43
0.0000000001
44
0.0000000001
40
0
40
0
40
0
40
0
40
0.039060200651694917
40
0.039060200651694917
40
0.076178022096982906
40
0.076178022096982906
40
0.1142493378385155
40
0.1142493378385155
40
0.1404865490690706
40
0.1404865490690706
40
0.16796897878399142
40
0.16796897878399142
40
0.16796897878399142
40
0.16796897878399142
10
-14.173549843880208
20
20.003385021565755
30
0
10
-14.178675854464419
20
20.003385021565755
30
0
10
-14.183705600169034
20
20.00434444022806
30
0
10
-14.192925444751426
20
20.008146864179363
30
0
10
-14.19701061717076
20
20.010842960120517
30
0
10
-14.20404628142111
20
20.017712975393319
30
0
10
-14.206898896459302
20
20.021858009104477
30
0
10
-14.210246365728803
20
20.029576726243995
30
0
10
-14.21118291606107
20
20.032890875539575
30
0
10
-14.212179745799981
20
20.039851289119134
30
0
10
-14.212190605128253
20
20.043421115801564
30
0
10
-14.211706345344185
20
20.04702018682989
30
0
0
SPLINE
5
191
100
AcDbEntity
8
0
100
AcDbSpline
70
0
71
3
72
14
73
10
74
0
42
0.000000001
43
0.0000000001
44
0.0000000001
40
0
40
0
40
0
40
0
40
0.7897269851936255
40
0.7897269851936255
40
1.5843083289355
40
1.5843083289355
40
2.1252511134993286
40
2.1252511134993286
40
2.6802299547072934
40
2.6802299547072934
40
2.6802299547072934
40
2.6802299547072934
10
-14.211706345342364
20
20.047020186829634
30
0
10
-14.197884881116247
20
20.149733135112523
30
0
10
-14.164685144962503
20
20.248324222698098
30
0
10
-14.061987830289715
20
20.428728513615233
30
0
10
-13.993344780850935
20
20.508446359270966
30
0
10
-13.855932761808695
20
20.616718424982558
30
0
10
-13.794735939943324
20
20.653058175481124
30
0
10
-13.662676251580267
20
20.709453635730966
30
0
10
-13.592398718982048
20
20.728735467016179
30
0
10
-13.520286126246198
20
20.738438951381209
30
0
0
SPLINE
5
192
100
AcDbEntity
8
0
100
AcDbSpline
70
0
71
3
72
16
73
12
74
0
42
0.000000001
43
0.0000000001
44
0.0000000001
40
0
40
0
40
0
40
0
40
0.039067484130268872
40
0.039067484130268872
40
0.076183808519865767
40
0.076183808519865767
40
0.11425054646866477
40
0.11425054646866477
40
0.14048626597671834
40
0.14048626597671834
40
0.16796849008241654
40
0.16796849008241654
40
0.16796849008241654
40
0.16796849008241654
10
-13.520286126246241
20
20.738438951379699
30
0
10
-13.515204944937597
20
20.73912260421104
30
0
10
-13.510091239357285
20
20.738842430344217
30
0
10
-13.500446075967131
20
20.736302858978494
30
0
10
-13.496038183097582
20
20.734175542194372
30
0
10
-13.488150240100099
20
20.728305129294558
30
0
10
-13.484771047876613
20
20.724577809894868
30
0
10
-13.480424946034004
20
20.717374910242867
30
0
10
-13.479055042410465
20
20.714215381465735
30
0
10
-13.477139173772443
20
20.707450243491113
30
0
10
-13.476652443977864
20
20.70391386678353
30
0
10
-13.476652443977864
20
20.700282421468099
30
0
0
LINE
5
193
100
AcDbEntity
8
0
100
AcDbLine
10
-13.476652443977864
20
20.700282421468099
30
0
11
-13.476652443977864
21
20.698312766113283
31
0
0
SPLINE
5
194
100
AcDbEntity
8
0
100
AcDbSpline
70
0
71
3
72
14
73
10
74
0
42
0.000000001
43
0.0000000001
44
0.0000000001
40
0
40
0
40
0
40
0
40
0.038783666870079087
40
0.038783666870079087
40
0.076383578173457881
40
0.076383578173457881
40
0.10831918516220096
40
0.10831918516220096
40
0.14148568986183224
40
0.14148568986183224
40
0.14148568986183224
40
0.14148568986183224
10
-13.476652443977864
20
20.698312766113283
30
0
10
-13.476652443977864
20
20.693223046051589
30
0
10
-13.477614495260095
20
20.688214841425246
30
0
10
-13.481410759470689
20
20.678959883745346
30
0
10
-13.484140086250209
20
20.674815512483299
30
0
10
-13.49051562655078
20
20.668320410740414
30
0
10
-13.493911947964582
20
20.665844287926035
30
0
10
-13.501527615039929
20
20.662011385293205
30
0
10
-13.505693240821206
20
20.660740431029723
30
0
10
-13.510003581127458
20
20.660158938415584
30
0
0
SPLINE
5
195
100
AcDbEntity
8
0
100
AcDbSpline
70
0
71
3
72
14
73
10
74
0
42
0.000000001
43
0.0000000001
44
0.0000000001
40
0
40
0
40
0
40
0
40
0.7110060819561782
40
0.7110060819561782
40
1.4281452598634679
40
1.4281452598634679
40
1.9159312348869986
40
1.9159312348869986
40
2.4161370277514402
40
2.4161370277514402
40
2.4161370277514402
40
2.4161370277514402
10
-13.510003671214919
20
20.660158926262039
30
0
10
-13.602473836766348
20
20.647683757190709
30
0
10
-13.691232897196025
20
20.617755332583883
30
0
10
-13.85386588993784
20
20.525189855092844
30
0
10
-13.925834889390458
20
20.463230942854405
30
0
10
-14.023550682465961
20
20.339274827081045
30
0
10
-14.056345873913889
20
20.284100430723722
30
0
10
-14.107242713411367
20
20.165066520192461
30
0
10
-14.124656771854603
20
20.101731159636095
30
0
10
-14.133425077108393
20
20.036737520368568
30
0
0
SPLINE
5
196
100
AcDbEntity
8
0
100
AcDbSpline
70
0
71
3
72
14
73
10
74
0
42
0.000000001
43
0.0000000001
44
0.0000000001
40
0
40
0
40
0
40
0
40
0.038998879622393248
40
0.038998879622393248
40
0.076529341315898697
40
0.076529341315898697
40
0.11150614176502779
40
0.11150614176502779
40
0.14797828751249703
40
0.14797828751249703
40
0.14797828751249703
40
0.14797828751249703
10
-14.845149033188772
20
20.039211491894541
30
0
10
-14.845504351687492
20
20.034105877716737
30
0
10
-14.846816582527845
20
20.029151185432681
30
0
10
-14.851261785145001
20
20.020169906607627
30
0
10
-14.854267634152999
20
20.016236064689508
30
0
10
-14.861371896777754
20
20.009947237103315
30
0
10
-14.86531471675616
20
20.007562644058602
30
0
10
-14.874056262478655
20
20.00422838645401
30
0
10
-14.878771975858658
20
20.003385021565755
30
0
10
-14.883556557747397
20
20.003385021565755
30
0
0
LINE
5
197
100
AcDbEntity
8
0
100
AcDbLine
10
-14.883556557747397
20
20.003385021565755
30
0
11
-14.885513497444663
21
20.003385021565755
31
0
0
SPLINE
5
198
100
AcDbEntity
8
0
100
AcDbSpline
70
0
71
3
72
16
73
12
74
0
42
0.000000001
43
0.0000000001
44
0.0000000001
40
0
40
0
40
0
40
0
40
0.039088900325466004
40
0.039088900325466004
40
0.076365594381540114
40
0.076365594381540114
40
0.11439623542285576
40
0.11439623542285576
40
0.13752625952754352
40
0.13752625952754352
40
0.16154766874713877
40
0.16154766874713877
40
0.16154766874713877
40
0.16154766874713877
10
-14.885513497444663
20
20.003385021565755
30
0
10
-14.890643274390262
20
20.003385021565755
30
0
10
-14.895681028972673
20
20.004347479816069
30
0
10
-14.904925132268845
20
20.008156527606271
30
0
10
-14.909029720942902
20
20.010864690186075
30
0
10
-14.916068022664172
20
20.017755979305573
30
0
10
-14.918906809201037
20
20.021898749987706
30
0
10
-14.922070493225016
20
20.029251254757877
30
0
10
-14.922931628264394
20
20.032160086980184
30
0
10
-14.923981333381578
20
20.038243363755367
30
0
10
-14.924141354942483
20
20.041382709383733
30
0
10
-14.923920865503712
20
20.044555165914357
30
0
0
SPLINE
5
199
100
AcDbEntity
8
0
100
AcDbSpline
70
0
71
3
72
14
73
10
74
0
42
0.000000001
43
0.0000000001
44
0.0000000001
40
0
40
0
40
0
40
0
40
1.4856450727542418
40
1.4856450727542418
40
2.9726094015726394
40
2.9726094015726394
40
4.2349407977325422
40
4.2349407977325422
40
5.53755161538305
40
5.53755161538305
40
5.53755161538305
40
5.53755161538305
10
-14.923920865502687
20
20.044555165914286
30
0
10
-14.910401277633161
20
20.239052400870509
30
0
10
-14.860138191256251
20
20.427951949641397
30
0
10
-14.689535184015112
20
20.778024409857235
30
0
10
-14.570987370528256
20
20.935120757238657
30
0
10
-14.303470561636109
20
21.176028757089931
30
0
10
-14.163329444851188
20
21.265951306597227
30
0
10
-13.854659769173548
20
21.398725382617133
30
0
10
-13.688261913149594
20
21.438807250617728
30
0
10
-13.517819823297323
20
21.450654730080515
30
0
0
SPLINE
5
200
100
AcDbEntity
8
0
100
AcDbSpline
70
0
71
3
72
16
73
12
74
0
42
0.000000001
43
0.0000000001
44
0.0000000001
40
0
40
0
40
0
40
0
40
0.039090941836828992
40
0.039090941836828992
40
0.076366530213538661
40
0.076366530213538661
40
0.11439508583534903
40
0.11439508583534903
40
0.13752440143492028
40
0.13752440143492028
40
0.16154527376209593
40
0.16154527376209593
40
0.16154527376209593
40
0.16154527376209593
10
-13.517819823297396
20
21.450654730079634
30
0
10
-13.512702123289204
20
21.451010408159718
30
0
10
-13.507609500329242
20
21.450399528045864
30
0
10
-13.498123483567358
20
21.447240406193231
30
0
10
-13.493841187186701
20
21.444823372480744
30
0
10
-13.486342478128533
20
21.438436788509165
30
0
10
-13.483223560373849
20
21.434500981715374
30
0
10
-13.479557993211376
20
21.427385797431594
30
0
10
-13.478497324258067
20
21.424543746916104
30
0
10
-13.477028457809938
20
21.418548041937544
30
0
10
-13.47665117241211
20
21.415427439609513
30
0
10
-13.47665117241211
20
21.412247346598306
30
0
0
LINE
5
201
100
AcDbEntity
8
0
100
AcDbLine
10
-13.47665117241211
20
21.412247346598306
30
0
11
-13.47665117241211
21
21.410290406901041
31
0
0
SPLINE
5
202
100
AcDbEntity
8
0
100
AcDbSpline
70
0
71
3
72
14
73
10
74
0
42
0.000000001
43
0.0000000001
44
0.0000000001
40
0
40
0
40
0
40
0
40
0.039008721611564011
40
0.039008721611564011
40
0.076539211290022044
40
0.076539211290022044
40
0.11151100648313425
40
0.11151100648313425
40
0.14798014952403349
40
0.14798014952403349
40
0.14798014952403349
40
0.14798014952403349
10
-13.47665117241211
20
21.410290406901041
30
0
10
-13.47665117241211
20
21.405171152096376
30
0
10
-13.477616462243411
20
21.400136037718728
30
0
10
-13.481428273177235
20
21.390866804827819
30
0
10
-13.484153891547599
20
21.386733954259117
30
0
10
-13.490804387593608
20
21.379968016774974
30
0
10
-13.494571703351843
20
21.377316119182161
30
0
10
-13.503059855389351
20
21.373383789917128
30
0
10
-13.507705254927815
20
21.372215256702638
30
0
10
-13.512477876425944
20
21.371882866091827
30
0
0
SPLINE
5
203
100
AcDbEntity
8
0
100
AcDbSpline
70
0
71
3
72
14
73
10
74
0
42
0.000000001
43
0.0000000001
44
0.0000000001
40
0
40
0
40
0
40
0
40
1.4062178707563564
40
1.4062178707563564
40
2.8160447942665954
40
2.8160447942665954
40
4.0129978036353071
40
4.0129978036353071
40
5.2477140257831207
40
5.2477140257831207
40
5.2477140257831207
40
5.2477140257831207
10
-13.512477876424512
20
21.371882866078398
30
0
10
-13.696575501533491
20
21.359069065450523
30
0
10
-13.875376067496688
20
21.311466970152271
30
0
10
-14.207044869299148
20
21.14990466647571
30
0
10
-14.356030461283078
20
21.037519927650347
30
0
10
-14.584536543435416
20
20.783937231646416
30
0
10
-14.669864908924399
20
20.651077199680763
30
0
10
-14.795850862000146
20
20.358487497479377
30
0
10
-14.833903990986807
20
20.200770550284744
30
0
10
-14.845149016924749
20
20.039211725578156
30
0
0
SPLINE
5
204
100
AcDbEntity
8
0
100
AcDbSpline
70
0
71
3
72
16
73
12
74
0
42
0.000000001
43
0.0000000001
44
0.0000000001
40
0
40
0
40
0
40
0
40
0.039072624949120296
40
0.039072624949120296
40
0.076296319762567372
40
0.076296319762567372
40
0.11434602474491128
40
0.11434602474491128
40
0.1385387378749427
40
0.1385387378749427
40
0.15757986286379486
40
0.15757986286379486
40
0.15757986286379486
40
0.15757986286379486
10
-13.306897209946435
20
18.783899630102198
30
0
10
-13.312003471532535
20
18.783431874234992
30
0
10
-13.317104287770956
20
18.783929905931142
30
0
10
-13.326648324969707
20
18.786877732557574
30
0
10
-13.330976176424091
20
18.789196592811564
30
0
10
-13.338613356488972
20
18.795409840019829
30
0
10
-13.34182389921736
20
18.799277033235764
30
0
10
-13.345719665311334
20
18.806429742997199
30
0
10
-13.346882003995516
20
18.809382993307871
30
0
10
-13.348295811263478
20
18.814863350805389
30
0
10
-13.348910734586587
20
18.818146744398046
30
0
10
-13.348910734586587
20
18.822239564615884
30
0
0
LINE
5
205
100
AcDbEntity
8
0
100
AcDbLine
10
-13.348910734586584
20
18.822239564615884
30
0
11
-13.348910734586587
21
18.824201590576173
31
0
0
SPLINE
5
206
100
AcDbEntity
8
0
100
AcDbSpline
70
0
71
3
72
14
73
10
74
0
42
0.000000001
43
0.0000000001
44
0.0000000001
40
0
40
0
40
0
40
0
40
0.038918502573063792
40
0.038918502573063792
40
0.076472202349924509
40
0.076472202349924509
40
0.11041385106559465
40
0.11041385106559465
40
0.14575671744683738
40
0.14575671744683738
40
0.14575671744683738
40
0.14575671744683738
10
-13.348910734586587
20
18.824201590576173
30
0
10
-13.348910734586587
20
18.829309005612007
30
0
10
-13.347946831954969
20
18.834333196177219
30
0
10
-13.344141515491796
20
18.843596109703835
30
0
10
-13.341414837914625
20
18.847733080899268
30
0
10
-13.334858248412077
20
18.854407746323602
30
0
10
-13.331217931387505
20
18.85700168450122
30
0
10
-13.323028569891056
20
18.860906833729288
30
0
10
-13.318546931494732
20
18.862115598805246
30
0
10
-13.313930512061335
20
18.862539275057461
30
0
0
SPLINE
5
207
100
AcDbEntity
8
0
100
AcDbSpline
70
0
71
3
72
14
73
10
74
0
42
0.000000001
43
0.0000000001
44
0.0000000001
40
0
40
0
40
0
40
0
40
0.37045608393512819
40
0.37045608393512819
40
0.60932321792157218
40
0.60932321792157218
40
0.79425138647150573
40
0.79425138647150573
40
1.080585883574442
40
1.080585883574442
40
1.080585883574442
40
1.080585883574442
10
-13.313930512060036
20
18.862539275038781
30
0
10
-13.265517734941376
20
18.866982931166227
30
0
10
-13.097625287364265
20
18.882393249429914
30
0
10
-12.783325522167507
20
19.049080027926308
30
0
10
-12.673799726474343
20
19.13779288839396
30
0
10
-12.51478396038047
20
19.327257180034579
30
0
10
-12.45808280502151
20
19.419860156639665
30
0
10
-12.351141782161639
20
19.673388986693222
30
0
10
-12.339406101099657
20
19.801422046204202
30
0
10
-12.335804144002594
20
19.840665745214281
30
0
0
SPLINE
5
208
100
AcDbEntity
8
0
100
AcDbSpline
70
0
71
3
72
14
73
10
74
0
42
0.000000001
43
0.0000000001
44
0.0000000001
40
0
40
0
40
0
40
0
40
0.038925563134253306
40
0.038925563134253306
40
0.076476583541644994
40
0.076476583541644994
40
0.11041734046267793
40
0.11041734046267793
40
0.14576151451672836
40
0.14576151451672836
40
0.14576151451672836
40
0.14576151451672836
10
-12.335804144024905
20
19.840665745193789
30
0
10
-12.335337298148058
20
19.845752709811347
30
0
10
-12.333918058476936
20
19.850668658244054
30
0
10
-12.329281500316592
20
19.859545331446963
30
0
10
-12.326188266193224
20
19.863415308189062
30
0
10
-12.319049139848076
20
19.869462101385711
30
0
10
-12.315186979179334
20
19.871712105907324
30
0
10
-12.30667475672338
20
19.874851961235091
30
0
10
-12.302101190460396
20
19.87564585530599
30
0
10
-12.297465198291015
20
19.87564585530599
30
0
0
LINE
5
209
100
AcDbEntity
8
0
100
AcDbLine
10
-12.297465198291015
20
19.87564585530599
30
0
11
-12.29549873166474
21
19.87564458313387
31
0
0
SPLINE
5
210
100
AcDbEntity
8
0
100
AcDbSpline
70
0
71
3
72
16
73
12
74
0
42
0.000000001
43
0.0000000001
44
0.0000000001
40
0
40
0
40
0
40
0
40
0.03906799615611508
40
0.03906799615611508
40
0.076290558320372737
40
0.076290558320372737
40
0.11434069759200532
40
0.11434069759200532
40
0.13852693115667164
40
0.13852693115667164
40
0.15756290880426119
40
0.15756290880426119
40
0.15756290880426119
40
0.15756290880426119
10
-12.29549873166474
20
19.87564458313387
30
0
10
-12.290371698122746
20
19.87564371031338
30
0
10
-12.28533833092348
20
19.874681679791237
30
0
10
-12.276104290023914
20
19.870874319243811
30
0
10
-12.272006565834136
20
19.868169736526166
30
0
10
-12.264969150075139
20
19.8612846481983
30
0
10
-12.262125400598364
20
19.857140194528451
30
0
10
-12.258899851475968
20
19.849662110443273
30
0
10
-12.258012370441762
20
19.846615845293812
30
0
10
-12.257105085910634
20
19.841030772792347
30
0
10
-12.256792516021193
20
19.837705809399605
30
0
10
-12.257165780948551
20
19.833631059100082
30
0
0
SPLINE
5
211
100
AcDbEntity
8
0
100
AcDbSpline
70
0
71
3
72
14
73
10
74
0
42
0.000000001
43
0.0000000001
44
0.0000000001
40
0
40
0
40
0
40
0
40
1.1375953767301838
40
1.1375953767301838
40
2.2783999140472355
40
2.2783999140472355
40
3.1812288493510712
40
3.1812288493510712
40
4.1110402221131821
40
4.1110402221131821
40
4.1110402221131821
40
4.1110402221131821
10
-12.25716578095337
20
19.833631059100522
30
0
10
-12.270787429603372
20
19.684963062189066
30
0
10
-12.312480228767399
20
19.541145178054709
30
0
10
-12.449074298685369
20
19.275731418332356
30
0
10
-12.54266053865644
20
19.157217157145158
30
0
10
-12.745502674975805
20
18.982624861345776
30
0
10
-12.846389688231335
20
18.919564187096888
30
0
10
-13.067035595947527
20
18.824899452679784
30
0
10
-13.185471460155439
20
18.795025243610354
30
0
10
-13.306897209946856
20
18.783899630107115
30
0
0
SPLINE
5
212
100
AcDbEntity
8
0
100
AcDbSpline
70
0
71
3
72
14
73
10
74
0
42
0.000000001
43
0.0000000001
44
0.0000000001
40
0
40
0
40
0
40
0
40
1.1375954247146896
40
1.1375954247146896
40
2.2783999333590677
40
2.2783999333590677
40
3.1812294715173857
40
3.1812294715173857
40
4.1110414677581542
40
4.1110414677581542
40
4.1110414677581542
40
4.1110414677581542
10
-13.306897689929778
20
21.095130019177123
30
0
10
-13.158229681170686
20
21.081508430817593
30
0
10
-13.014411774969673
20
21.03981568960814
30
0
10
-12.748997958474021
20
20.903221725350047
30
0
10
-12.630483663012125
20
20.809635536045175
30
0
10
-12.455891235451995
20
20.606793414884947
30
0
10
-12.392830487276743
20
20.505906353082285
30
0
10
-12.298165643479329
20
20.28526031811559
30
0
10
-12.268291401909245
20
20.166824377334361
30
0
10
-12.25716578095348
20
20.045398546205494
30
0
0
SPLINE
5
213
100
AcDbEntity
8
0
100
AcDbSpline
70
0
71
3
72
16
73
12
74
0
42
0.000000001
43
0.0000000001
44
0.0000000001
40
0
40
0
40
0
40
0
40
0.039072624949039535
40
0.039072624949039535
40
0.076296319762444331
40
0.076296319762444331
40
0.11434602474484659
40
0.11434602474484659
40
0.13853873787467691
40
0.13853873787467691
40
0.15757986286397216
40
0.15757986286397216
40
0.15757986286397216
40
0.15757986286397216
10
-12.257165780948551
20
20.045398546205909
30
0
10
-12.256698025081343
20
20.04029228461982
30
0
10
-12.25719605677749
20
20.035191468381399
30
0
10
-12.260143883403934
20
20.025647431182627
30
0
10
-12.262462743657931
20
20.021319579728239
30
0
10
-12.268675990866198
20
20.013682399663359
30
0
10
-12.272543184082135
20
20.010471856934966
30
0
10
-12.279695893843567
20
20.006576090841001
30
0
10
-12.282649144154217
20
20.005413752156819
30
0
10
-12.288129501651857
20
20.003999944888829
30
0
10
-12.291412895244434
20
20.003385021565755
30
0
10
-12.295505715462239
20
20.003385021565755
30
0
0
LINE
5
214
100
AcDbEntity
8
0
100
AcDbLine
10
-12.295505715462239
20
20.003385021565759
30
0
11
-12.29746646985677
21
20.003385021565755
31
0
0
SPLINE
5
215
100
AcDbEntity
8
0
100
AcDbSpline
70
0
71
3
72
14
73
10
74
0
42
0.000000001
43
0.0000000001
44
0.0000000001
40
0
40
0
40
0
40
0
40
0.038924309159837446
40
0.038924309159837446
40
0.076478830764392103
40
0.076478830764392103
40
0.11041912665406714
40
0.11041912665406714
40
0.14576048131057567
40
0.14576048131057567
40
0.14576048131057567
40
0.14576048131057567
10
-12.29746646985677
20
20.003385021565755
30
0
10
-12.302574646911868
20
20.003385021565755
30
0
10
-12.307599580053711
20
20.004349043362371
30
0
10
-12.316863211456212
20
20.008154853350707
30
0
10
-12.321000194236241
20
20.010881639144472
30
0
10
-12.327674612864252
20
20.017438345452867
30
0
10
-12.330268336485107
20
20.021078561092285
30
0
10
-12.3341731391218
20
20.029267642490556
30
0
10
-12.335381781031607
20
20.033749093992544
30
0
10
-12.335805431211201
20
20.038365301921033
30
0
0
SPLINE
5
216
100
AcDbEntity
8
0
100
AcDbSpline
70
0
71
3
72
14
73
10
74
0
42
0.000000001
43
0.0000000001
44
0.0000000001
40
0
40
0
40
0
40
0
40
0.74739891122048174
40
0.74739891122048174
40
1.3193679683699959
40
1.3193679683699959
40
1.7621844553427872
40
1.7621844553427872
40
2.3410182139640936
40
2.3410182139640936
40
2.3410182139640936
40
2.3410182139640936
10
-12.335805431195977
20
20.038365301922077
30
0
10
-12.344770309476441
20
20.136038593688948
30
0
10
-12.371614012937535
20
20.284754121274759
30
0
10
-12.522343945556702
20
20.568967814747012
30
0
10
-12.611056192448412
20
20.678493396249223
30
0
10
-12.800520098205698
20
20.837509894345565
30
0
10
-12.893123579592432
20
20.894211662357073
30
0
10
-13.122658319369812
20
20.991032197472045
30
0
10
-13.237939699216117
20
21.009516718523265
30
0
10
-13.313931725905077
20
21.016491596532134
30
0
0
SPLINE
5
217
100
AcDbEntity
8
0
100
AcDbSpline
70
0
71
3
72
14
73
10
74
0
42
0.000000001
43
0.0000000001
44
0.0000000001
40
0
40
0
40
0
40
0
40
0.038913295994252986
40
0.038913295994252986
40
0.076466899969192106
40
0.076466899969192106
40
0.1104122537414475
40
0.1104122537414475
40
0.14575838700946769
40
0.14575838700946769
40
0.14575838700946769
40
0.14575838700946769
10
-13.313931725885551
20
21.016491596515017
30
0
10
-13.319017086670634
20
21.016958302987465
30
0
10
-13.323931491461121
20
21.018377163132811
30
0
10
-13.332807360964711
20
21.02301260816283
30
0
10
-13.336677903363672
20
21.026105896253743
30
0
10
-13.342726003045565
20
21.033245206941238
30
0
10
-13.344976787825084
20
21.037107736315789
30
0
10
-13.348117706043498
20
21.045620515546553
30
0
10
-13.348912006152343
20
21.050194298831094
30
0
10
-13.348912006152343
20
21.054830557861326
30
0
0
LINE
5
218
100
AcDbEntity
8
0
100
AcDbLine
10
-13.348912006152343
20
21.05483055786133
30
0
11
-13.348910734586587
21
21.056738873128243
31
0
0
SPLINE
5
219
100
AcDbEntity
8
0
100
AcDbSpline
70
0
71
3
72
16
73
12
74
0
42
0.000000001
43
0.0000000001
44
0.0000000001
40
0
40
0
40
0
40
0
40
0.014151106479014335
40
0.014151106479014335
40
0.023061298504767489
40
0.023061298504767489
40
0.032172291973077131
40
0.032172291973077131
40
0.037901569720375623
40
0.037901569720375623
40
0.043865817961326409
40
0.043865817961326409
40
0.043865817961326409
40
0.043865817961326409
10
-13.348910734586587
20
21.056738873128243
30
0
10
-13.348910734586587
20
21.058595973716042
30
0
10
-13.348910734586587
20
21.064724070361077
30
0
10
-13.344043285554768
20
21.076360924791199
30
0
10
-13.341317389044479
20
21.080445340554562
30
0
10
-13.334394951537657
20
21.087449254508929
30
0
10
-13.330234438478774
20
21.09027272598334
30
0
10
-13.32276785264011
20
21.093447222618664
30
0
10
-13.319749812536459
20
21.094313583085338
30
0
10
-13.313434228459963
20
21.095322264617117
30
0
10
-13.310184665247958
20
21.095431233710883
30
0
10
-13.306898043470644
20
21.095130051572607
30
0
0
SPLINE
5
220
100
AcDbEntity
8
0
100
AcDbSpline
70
0
71
3
72
14
73
10
74
0
42
0.000000001
43
0.0000000001
44
0.0000000001
40
0
40
0
40
0
40
0
40
0.038968723300643666
40
0.038968723300643666
40
0.076510293761366518
40
0.076510293761366518
40
0.11102936907847186
40
0.11102936907847186
40
0.14700120265251249
40
0.14700120265251249
40
0.14700120265251249
40
0.14700120265251249
10
-13.313448056043478
20
21.194257094104046
30
0
10
-13.318546105923563
20
21.194660754283923
30
0
10
-13.323484527999465
20
21.196019462719679
30
0
10
-13.332421524122459
20
21.200547907187548
30
0
10
-13.336328250642405
20
21.203591879182063
30
0
10
-13.342511600813179
20
21.210711344837758
30
0
10
-13.344837146489166
20
21.214618440568604
30
0
10
-13.348086472867719
20
21.223258151659387
30
0
10
-13.348908670553056
20
21.227910673309264
30
0
10
-13.348909462433321
20
21.232629316936642
30
0
0
LINE
5
221
100
AcDbEntity
8
0
100
AcDbLine
10
-13.348909462433317
20
21.232629316936642
30
0
11
-13.348910734586587
21
21.234596894938154
31
0
0
SPLINE
5
222
100
AcDbEntity
8
0
100
AcDbSpline
70
0
71
3
72
16
73
12
74
0
42
0.000000001
43
0.0000000001
44
0.0000000001
40
0
40
0
40
0
40
0
40
0.039080852253954419
40
0.039080852253954419
40
0.076333962314957843
40
0.076333962314957843
40
0.11437221621226586
40
0.11437221621226586
40
0.13796152849664228
40
0.13796152849664228
40
0.16248435358451538
40
0.16248435358451538
40
0.16248435358451538
40
0.16248435358451538
10
-13.348910734586587
20
21.234596894938154
30
0
10
-13.348910734586587
20
21.239725615706387
30
0
10
-13.347948818708243
20
21.244761661883594
30
0
10
-13.344141119857177
20
21.254001776979994
30
0
10
-13.341434818600586
20
21.258103572650295
30
0
10
-13.334546822269942
20
21.265141886184974
30
0
10
-13.330403623586303
20
21.267983069478586
30
0
10
-13.322996831135224
20
21.271174082327033
30
0
10
-13.320028350886009
20
21.272046986001751
30
0
10
-13.313816902291181
20
21.273091846810363
30
0
10
-13.310614965197816
20
21.273233014570838
30
0
10
-13.30737695520507
20
21.272977047296003
30
0
0
SPLINE
5
223
100
AcDbEntity
8
0
100
AcDbSpline
70
0
71
3
72
14
73
10
74
0
42
0.000000001
43
0.0000000001
44
0.0000000001
40
0
40
0
40
0
40
0
40
0.92137259543100092
40
0.92137259543100092
40
1.6241294579463441
40
1.6241294579463441
40
2.1916270278289356
40
2.1916270278289356
40
2.7766953395968397
40
2.7766953395968397
40
2.7766953395968397
40
2.7766953395968397
10
-13.307376955205736
20
21.272977047287554
30
0
10
-13.186837896143507
20
21.263449096759892
30
0
10
-13.002142086774075
20
21.232717419014858
30
0
10
-12.648080594601472
20
21.050643875232144
30
0
10
-12.51143425159267
20
20.942811678073216
30
0
10
-12.308286987511257
20
20.706987193530093
30
0
10
-12.234410542134063
20
20.588104078646396
30
0
10
-12.124515959736897
20
20.327812563505763
30
0
10
-12.090632472682879
20
20.188047182371342
30
0
10
-12.079318772013904
20
20.044919599852822
30
0
0
SPLINE
5
224
100
AcDbEntity
8
0
100
AcDbSpline
70
0
71
3
72
16
73
12
74
0
42
0.000000001
43
0.0000000001
44
0.0000000001
40
0
40
0
40
0
40
0
40
0.039081156304095595
40
0.039081156304095595
40
0.076337119606361581
40
0.076337119606361581
40
0.11437798954641887
40
0.11437798954641887
40
0.1379648442854442
40
0.1379648442854442
40
0.16248449187253797
40
0.16248449187253797
40
0.16248449187253797
40
0.16248449187253797
10
-12.079318772019333
20
20.044919599852648
30
0
10
-12.078914758787313
20
20.039806776824538
30
0
10
-12.079476990229171
20
20.034710557804654
30
0
10
-12.082544982880183
20
20.025198771468599
30
0
10
-12.084919895956363
20
20.020896146036002
30
0
10
-12.091232389554607
20
20.013336456524588
30
0
10
-12.095139130336996
20
20.010177415727025
30
0
10
-12.102271529691347
20
20.006412810653156
30
0
10
-12.105161700233534
20
20.005308847629021
30
0
10
-12.111270787175986
20
20.003777998187829
30
0
10
-12.114451251879865
20
20.003385021565755
30
0
10
-12.117698861214192
20
20.003385021565755
30
0
0
LINE
5
225
100
AcDbEntity
8
0
100
AcDbLine
10
-12.11769886121419
20
20.003385021565755
30
0
11
-12.119658344042968
21
20.003385021565755
31
0
0
SPLINE
5
226
100
AcDbEntity
8
0
100
AcDbSpline
70
0
71
3
72
14
73
10
74
0
42
0.000000001
43
0.0000000001
44
0.0000000001
40
0
40
0
40
0
40
0
40
0.038971099696485607
40
0.038971099696485607
40
0.076510939969772374
40
0.076510939969772374
40
0.11103679761816265
40
0.11103679761816265
40
0.14701727995671945
40
0.14701727995671945
40
0.14701727995671945
40
0.14701727995671945
10
-12.119658344042968
20
20.003385021565755
30
0
10
-12.124772661588439
20
20.003385021565755
30
0
10
-12.129803227363212
20
20.004349732160282
30
0
10
-12.139069782511157
20
20.008158816903499
30
0
10
-12.143204320441994
20
20.010884850973653
30
0
10
-12.149930616683911
20
20.017494673513379
30
0
10
-12.152557515220243
20
20.021206941128057
30
0
10
-12.156478497956597
20
20.029565520540224
30
0
10
-12.157664858431433
20
20.034139927556854
30
0
10
-12.158037277229084
20
20.038844997605374
30
0
0
SPLINE
5
227
100
AcDbEntity
8
0
100
AcDbSpline
70
0
71
3
72
14
73
10
74
0
42
0.000000001
43
0.0000000001
44
0.0000000001
40
0
40
0
40
0
40
0
40
0.43124426412849992
40
0.43124426412849992
40
0.7090766636525192
40
0.7090766636525192
40
0.93330710518948223
40
0.93330710518948223
40
1.1643927151988436
40
1.1643927151988436
40
1.1643927151988436
40
1.1643927151988436
10
-12.15803727720356
20
20.038844997606795
30
0
10
-12.162503561735315
20
20.09526222187969
30
0
10
-12.177975419763808
20
20.290884655341927
30
0
10
-12.367294386922074
20
20.658920614691898
30
0
10
-12.468828394883257
20
20.787554582678741
30
0
10
-12.690761673086113
20
20.978739364303628
30
0
10
-12.802600987632502
20
21.048268628317764
30
0
10
-13.047412840857724
20
21.15169368875608
30
0
10
-13.178846882725924
20
21.183601334152325
30
0
10
-13.313448056043786
20
21.1942570941026
30
0
0
SPLINE
5
228
100
AcDbEntity
8
0
100
AcDbSpline
70
0
71
3
72
16
73
12
74
0
42
0.000000001
43
0.0000000001
44
0.0000000001
40
0
40
0
40
0
40
0
40
0.039081168470865305
40
0.039081168470865305
40
0.076337131799702501
40
0.076337131799702501
40
0.11437799934082052
40
0.11437799934082052
40
0.13796490309048767
40
0.13796490309048767
40
0.16248460230646533
40
0.16248460230646533
40
0.16248460230646533
40
0.16248460230646533
10
-13.30737611372167
20
18.606053896103248
30
0
10
-13.31248893792081
20
18.60564987742158
30
0
10
-13.317585159045134
20
18.6062121036531
30
0
10
-13.327096949934425
20
18.609280087261237
30
0
10
-13.331399577688446
20
18.611654995962585
30
0
10
-13.338959273233154
20
18.617967481735164
30
0
10
-13.342118317773325
20
18.621874219061731
30
0
10
-13.345882932954952
20
18.629006619872698
30
0
10
-13.34698690050975
20
18.631896795575091
30
0
10
-13.348517756313177
20
18.638005894442902
30
0
10
-13.348910734586587
20
18.641186365775841
30
0
10
-13.348910734586587
20
18.644433981933595
30
0
0
LINE
5
229
100
AcDbEntity
8
0
100
AcDbLine
10
-13.348910734586587
20
18.644433981933595
30
0
11
-13.348910734586587
21
18.646392193196615
31
0
0
SPLINE
5
230
100
AcDbEntity
8
0
100
AcDbSpline
70
0
71
3
72
14
73
10
74
0
42
0.000000001
43
0.0000000001
44
0.0000000001
40
0
40
0
40
0
40
0
40
0.038971099696693969
40
0.038971099696693969
40
0.076510939970254419
40
0.076510939970254419
40
0.11103679744626131
40
0.11103679744626131
40
0.14701727958969635
40
0.14701727958969635
40
0.14701727958969635
40
0.14701727958969635
10
-13.348910734586587
20
18.646392193196615
30
0
10
-13.348910734586587
20
18.651506510742113
30
0
10
-13.34794602399205
20
18.656537076516869
30
0
10
-13.344136939248845
20
18.665803631664794
30
0
10
-13.341410905178693
20
18.669938169595635
30
0
10
-13.334801082654794
20
18.676664465821446
30
0
10
-13.331088815061221
20
18.67929136434779
30
0
10
-13.322730235699664
20
18.683212347078314
30
0
10
-13.318155828711198
20
18.684398707559243
30
0
10
-13.313450758689727
20
18.684771126371427
30
0
0
SPLINE
5
231
100
AcDbEntity
8
0
100
AcDbSpline
70
0
71
3
72
14
73
10
74
0
42
0.000000001
43
0.0000000001
44
0.0000000001
40
0
40
0
40
0
40
0
40
0.86956460631816168
40
0.86956460631816168
40
1.5343509457762106
40
1.5343509457762106
40
2.0708806512021938
40
2.0708806512021938
40
2.6238131318239941
40
2.6238131318239941
40
2.6238131318239941
40
2.6238131318239941
10
-13.313450758688298
20
18.684771126345908
30
0
10
-13.199690587222582
20
18.693776980025518
30
0
10
-13.026205226779584
20
18.722819292961947
30
0
10
-12.693375145818454
20
18.894028233078568
30
0
10
-12.564741177451328
20
18.995562240470569
30
0
10
-12.373556394344789
20
19.217495518493902
30
0
10
-12.304027129495841
20
19.329334833582926
30
0
10
-12.200602067828514
20
19.574146688236855
30
0
10
-12.168694422072313
20
19.705580730966371
30
0
10
-12.158038662049744
20
19.840181905197433
30
0
0
SPLINE
5
232
100
AcDbEntity
8
0
100
AcDbSpline
70
0
71
3
72
14
73
10
74
0
42
0.000000001
43
0.0000000001
44
0.0000000001
40
0
40
0
40
0
40
0
40
0.038968723300756264
40
0.038968723300756264
40
0.076510293761373874
40
0.076510293761373874
40
0.11102936908125513
40
0.11102936908125513
40
0.14700120265875832
40
0.14700120265875832
40
0.14700120265875832
40
0.14700120265875832
10
-12.158038662048291
20
19.840181905197124
30
0
10
-12.157635001868419
20
19.845279955077221
30
0
10
-12.156276293432656
20
19.850218377153109
30
0
10
-12.15174784896481
20
19.85915537327606
30
0
10
-12.1487038769703
20
19.863062099796036
30
0
10
-12.141584411314289
20
19.869245449967089
30
0
10
-12.137677315583053
20
19.871570995643214
30
0
10
-12.129037604491442
20
19.87482032202179
30
0
10
-12.1243850828411
20
19.875642519706989
30
0
10
-12.11966643921329
20
19.875643311586973
30
0
0
LINE
5
233
100
AcDbEntity
8
0
100
AcDbLine
10
-12.119666439213288
20
19.87564331158697
30
0
11
-12.117698861214192
21
19.875644583740236
31
0
0
SPLINE
5
234
100
AcDbEntity
8
0
100
AcDbSpline
70
0
71
3
72
16
73
12
74
0
42
0.000000001
43
0.0000000001
44
0.0000000001
40
0
40
0
40
0
40
0
40
0.039075309575438526
40
0.039075309575438526
40
0.076328706170521676
40
0.076328706170521676
40
0.11436969330856289
40
0.11436969330856289
40
0.13795889505551398
40
0.13795889505551398
40
0.16248093298024549
40
0.16248093298024549
40
0.16248093298024549
40
0.16248093298024549
10
-12.117698861214192
20
19.875644583740236
30
0
10
-12.11257086783159
20
19.875644583740236
30
0
10
-12.107535535737593
20
19.874682777655305
30
0
10
-12.098295956475951
20
19.870875540112479
30
0
10
-12.094194038586364
20
19.868169282752284
30
0
10
-12.087155182188884
20
19.861281240338162
30
0
10
-12.084313611296626
20
19.857137807402435
30
0
10
-12.081122225843528
20
19.849730780101503
30
0
10
-12.080249218279736
20
19.846762334922904
30
0
10
-12.079204178810988
20
19.840551020974701
30
0
10
-12.079062919864363
20
19.837349120024012
30
0
10
-12.079318771730541
20
19.834111280673824
30
0
0
SPLINE
5
235
100
AcDbEntity
8
0
100
AcDbSpline
70
0
71
3
72
14
73
10
74
0
42
0.000000001
43
0.0000000001
44
0.0000000001
40
0
40
0
40
0
40
0
40
1.311610913319873
40
1.311610913319873
40
2.6255052630289013
40
2.6255052630289013
40
3.7082519456952729
40
3.7082519456952729
40
4.824604446196977
40
4.824604446196977
40
4.824604446196977
40
4.824604446196977
10
-12.079318771725031
20
19.834111280673387
30
0
10
-12.092882517407668
20
19.662519112158932
30
0
10
-12.138855168451828
20
19.496149453312732
30
0
10
-12.292446129750177
20
19.188380110050797
30
0
10
-12.398512145773948
20
19.050558777134132
30
0
10
-12.633746980767357
20
18.842807272112431
30
0
10
-12.754292050792056
20
18.766326345991637
30
0
10
-13.018989360833793
20
18.652596496470867
30
0
10
-13.16142010957425
20
18.617590916898788
30
0
10
-13.307376113722006
20
18.60605389609886
30
0
0
SPLINE
5
236
100
AcDbEntity
8
0
100
AcDbSpline
70
0
71
3
72
14
73
10
74
0
42
0.000000001
43
0.0000000001
44
0.0000000001
40
0
40
0
40
0
40
0
40
0.038778898357627559
40
0.038778898357627559
40
0.076379474709960454
40
0.076379474709960454
40
0.1083178194295332
40
0.1083178194295332
40
0.14148697561005877
40
0.14148697561005877
40
0.14148697561005877
40
0.14148697561005877
10
-13.315558325871239
20
20.660160209981342
30
0
10
-13.320601732723837
20
20.660840597984727
30
0
10
-13.325435763296987
20
20.662463412097459
30
0
10
-13.334099746571317
20
20.667462497255809
30
0
10
-13.337842179446453
20
20.670721416392471
30
0
10
-13.343427109953067
20
20.677908276146386
30
0
10
-13.345427231076833
20
20.681605435443714
30
0
10
-13.348207978929461
20
20.689665795384833
30
0
10
-13.348910734586587
20
20.693964290835588
30
0
10
-13.348910734586587
20
20.698314037679037
30
0
0
LINE
5
237
100
AcDbEntity
8
0
100
AcDbLine
10
-13.348910734586587
20
20.698314037679037
30
0
11
-13.348910734586587
21
20.700283693033857
31
0
0
SPLINE
5
238
100
AcDbEntity
8
0
100
AcDbSpline
70
0
71
3
72
16
73
12
74
0
42
0.000000001
43
0.0000000001
44
0.0000000001
40
0
40
0
40
0
40
0
40
0.039060200651615598
40
0.039060200651615598
40
0.076178022096761777
40
0.076178022096761777
40
0.11424933783822325
40
0.11424933783822325
40
0.14048654906859159
40
0.14048654906859159
40
0.16796897878302125
40
0.16796897878302125
40
0.16796897878302125
40
0.16796897878302125
10
-13.348910734586587
20
20.700283693033857
30
0
10
-13.348910734586587
20
20.705409703618059
30
0
10
-13.347951315924284
20
20.710439449322681
30
0
10
-13.344148891972978
20
20.719659293905085
30
0
10
-13.341452796031826
20
20.723744466324412
30
0
10
-13.334582780759009
20
20.730780130574775
30
0
10
-13.33043774704784
20
20.733632745612965
30
0
10
-13.322719029908349
20
20.736980214882447
30
0
10
-13.31940488061279
20
20.737916765214717
30
0
10
-13.312444467033197
20
20.738913594953633
30
0
10
-13.308874640350799
20
20.738924454281904
30
0
10
-13.305275569322452
20
20.738440194497834
30
0
0
SPLINE
5
239
100
AcDbEntity
8
0
100
AcDbSpline
70
0
71
3
72
14
73
10
74
0
42
0.000000001
43
0.0000000001
44
0.0000000001
40
0
40
0
40
0
40
0
40
0.78973092211607465
40
0.78973092211607465
40
1.584312584198281
40
1.584312584198281
40
2.1252521314023345
40
2.1252521314023345
40
2.6802280221895662
40
2.6802280221895662
40
2.6802280221895662
40
2.6802280221895662
10
-13.305275569322706
20
20.738440194496011
30
0
10
-13.202562108998388
20
20.724618661367764
30
0
10
-13.103970515998617
20
20.691418767418806
30
0
10
-12.92356582009282
20
20.588721057147247
30
0
10
-12.843848007523802
20
20.520077941484214
30
0
10
-12.735576389716753
20
20.382666071679267
30
0
10
-12.699236939544322
20
20.321469589906297
30
0
10
-12.642841916817423
20
20.189410606829824
30
0
10
-12.623560236931377
20
20.11913345173539
30
0
10
-12.613856804771135
20
20.047021246965599
30
0
0
SPLINE
5
240
100
AcDbEntity
8
0
100
AcDbSpline
70
0
71
3
72
16
73
12
74
0
42
0.000000001
43
0.0000000001
44
0.0000000001
40
0
40
0
40
0
40
0
40
0.03906644842358549
40
0.03906644842358549
40
0.076184785037416311
40
0.076184785037416311
40
0.11425391661549054
40
0.11425391661549054
40
0.14048917053974833
40
0.14048917053974833
40
0.16797028621762145
40
0.16797028621762145
40
0.16797028621762145
40
0.16797028621762145
10
-12.613856804772647
20
20.047021246965645
30
0
10
-12.613173170066503
20
20.041940200362575
30
0
10
-12.61345334947257
20
20.036826622957868
30
0
10
-12.61599282398816
20
20.02718129473752
30
0
10
-12.61812020673656
20
20.022773106024232
30
0
10
-12.623990821817364
20
20.014884586637663
30
0
10
-12.627718326494923
20
20.011505083434237
30
0
10
-12.63492139829297
20
20.007158778549485
30
0
10
-12.638080854271783
20
20.005788859254505
30
0
10
-12.644845781923847
20
20.003873012202131
30
0
10
-12.648382045757165
20
20.003386293131513
30
0
10
-12.652013334684245
20
20.003386293131513
30
0
0
LINE
5
241
100
AcDbEntity
8
0
100
AcDbLine
10
-12.652013334684248
20
20.003386293131513
30
0
11
-12.653982990039063
21
20.003386293131513
31
0
0
SPLINE
5
242
100
AcDbEntity
8
0
100
AcDbSpline
70
0
71
3
72
14
73
10
74
0
42
0.000000001
43
0.0000000001
44
0.0000000001
40
0
40
0
40
0
40
0
40
0.038778583596355498
40
0.038778583596355498
40
0.076378518983723873
40
0.076378518983723873
40
0.10831746762787242
40
0.10831746762787242
40
0.14148702185802634
40
0.14148702185802634
40
0.14148702185802634
40
0.14148702185802634
10
-12.653982990039063
20
20.003386293131513
30
0
10
-12.659072043004464
20
20.003386293131513
30
0
10
-12.664079586038278
20
20.004348238324873
30
0
10
-12.67333402032323
20
20.008144074394416
30
0
10
-12.677478477554843
20
20.010873345283979
30
0
10
-12.683974130437138
20
20.017248983405516
30
0
10
-12.686450638706988
20
20.020645611296352
30
0
10
-12.690284113252728
20
20.028261950335672
30
0
10
-12.691555270282505
20
20.032427955035775
30
0
10
-12.692136817736756
20
20.036738701846858
30
0
0
SPLINE
5
243
100
AcDbEntity
8
0
100
AcDbSpline
70
0
71
3
72
14
73
10
74
0
42
0.000000001
43
0.0000000001
44
0.0000000001
40
0
40
0
40
0
40
0
40
0.71100259213566719
40
0.71100259213566719
40
1.4281418538791022
40
1.4281418538791022
40
1.9159296104437382
40
1.9159296104437382
40
2.4161362246401974
40
2.4161362246401974
40
2.4161362246401974
40
2.4161362246401974
10
-12.692136829890305
20
20.036738791934322
30
0
10
-12.704611937729947
20
20.129208503615818
30
0
10
-12.734540218895551
20
20.217967116601034
30
0
10
-12.827105330579256
20
20.380599811160657
30
0
10
-12.889064200789136
20
20.452568909980943
30
0
10
-13.013020334659334
20
20.550285077581567
30
0
10
-13.068194888265706
20
20.583080499704423
30
0
10
-13.187229032365522
20
20.633977656423323
30
0
10
-13.250564483896143
20
20.651391841818217
30
0
10
-13.315558222736112
20
20.660160196067526
30
0
0
SPLINE
5
244
100
AcDbEntity
8
0
100
AcDbSpline
70
0
71
3
72
16
73
12
74
0
42
0.000000001
43
0.0000000001
44
0.0000000001
40
0
40
0
40
0
40
0
40
0.03906351810899239
40
0.03906351810899239
40
0.076241926876080238
40
0.076241926876080238
40
0.11430044418359536
40
0.11430044418359536
40
0.1393250695018991
40
0.1393250695018991
40
0.15940567143363962
40
0.15940567143363962
40
0.15940567143363962
40
0.15940567143363962
10
-13.519323317396223
20
20.917015529395208
30
0
10
-13.514227048543253
20
20.917570949791074
30
0
10
-13.509120834285548
20
20.917161358377893
30
0
10
-13.499534683479149
20
20.914379332820911
30
0
10
-13.495173450572347
20
20.912138071618962
30
0
10
-13.487432349360883
20
20.906063077184889
30
0
10
-13.484152214083684
20
20.902251686480753
30
0
10
-13.480074534461291
20
20.895075162797408
30
0
10
-13.478829658087273
20
20.89203669200101
30
0
10
-13.477300201077986
20
20.886333823823751
30
0
10
-13.476652443977864
20
20.88294856143775
30
0
10
-13.476652443977864
20
20.878741588948568
30
0
0
LINE
5
245
100
AcDbEntity
8
0
100
AcDbLine
10
-13.476652443977864
20
20.878741588948568
30
0
11
-13.476652444082873
21
20.876780461574587
31
0
0
SPLINE
5
246
100
AcDbEntity
8
0
100
AcDbSpline
70
0
71
3
72
14
73
10
74
0
42
0.000000001
43
0.0000000001
44
0.0000000001
40
0
40
0
40
0
40
0
40
0.032904024760358266
40
0.032904024760358266
40
0.054970351012763222
40
0.054970351012763222
40
0.074184698852531469
40
0.074184698852531469
40
0.0941711835797817
40
0.0941711835797817
40
0.0941711835797817
40
0.0941711835797817
10
-13.476652444082873
20
20.876780461574587
30
0
10
-13.476652273277043
20
20.872462348092355
30
0
10
-13.47682967192055
20
20.86841003129776
30
0
10
-13.481582091312211
20
20.857112113565229
30
0
10
-13.484345798387071
20
20.852995718077278
30
0
10
-13.490847928955684
20
20.846488439432719
30
0
10
-13.494360628720905
20
20.843996883574693
30
0
10
-13.502234353010884
20
20.840201202493219
30
0
10
-13.506535743657096
20
20.838989604056895
30
0
10
-13.510972463006544
20
20.838505030205216
30
0
0
SPLINE
5
247
100
AcDbEntity
8
0
100
AcDbSpline
70
0
71
3
72
14
73
10
74
0
42
0.000000001
43
0.0000000001
44
0.0000000001
40
0
40
0
40
0
40
0
40
0.88465606110841988
40
0.88465606110841988
40
1.7750426977787244
40
1.7750426977787244
40
2.4394430351095067
40
2.4394430351095067
40
3.1223398060558085
40
3.1223398060558085
40
3.1223398060558085
40
3.1223398060558085
10
-13.510972553299307
20
20.838505020343366
30
0
10
-13.626382791203037
20
20.825899601776339
30
0
10
-13.737678703619094
20
20.791502348298341
30
0
10
-13.942633787800096
20
20.681584744222864
30
0
10
-14.033897488089504
20
20.606955016540848
30
0
10
-14.16405881179848
20
20.450343368442109
30
0
10
-14.209784115455244
20
20.375737862584394
30
0
10
-14.279341672267016
20
20.213495943694049
30
0
10
-14.302051086033606
20
20.12672013119294
30
0
10
-14.311773713431396
20
20.037703867468391
30
0
0
SPLINE
5
248
100
AcDbEntity
8
0
100
AcDbSpline
70
0
71
3
72
14
73
10
74
0
42
0.000000001
43
0.0000000001
44
0.0000000001
40
0
40
0
40
0
40
0
40
0.038861833585531531
40
0.038861833585531531
40
0.07643643974702205
40
0.07643643974702205
40
0.10956610818250785
40
0.10956610818250785
40
0.14402619617167856
40
0.14402619617167856
40
0.14402619617167856
40
0.14402619617167856
10
-14.311773713431796
20
20.037703867468487
30
0
10
-14.312327492389453
20
20.032634044384096
30
0
10
-14.313829739976059
20
20.027750830934846
30
0
10
-14.31861422480539
20
20.018958580461039
30
0
10
-14.321775524273297
20
20.015138970885321
30
0
10
-14.328937462538587
20
20.00927963515209
30
0
10
-14.332734138804661
20
20.007132249661158
30
0
10
-14.34106425744195
20
20.004140191423414
30
0
10
-14.34552611485112
20
20.003383750000001
30
0
10
-14.350045713834636
20
20.003383750000001
30
0
0
LINE
5
249
100
AcDbEntity
8
0
100
AcDbLine
10
-14.350045713834636
20
20.003383750000001
30
0
11
-14.352015999891872
21
20.003385022171891
31
0
0
SPLINE
5
250
100
AcDbEntity
8
0
100
AcDbSpline
70
0
71
3
72
16
73
12
74
0
42
0.000000001
43
0.0000000001
44
0.0000000001
40
0
40
0
40
0
40
0
40
0.039058973337409479
40
0.039058973337409479
40
0.076238683083595354
40
0.076238683083595354
40
0.11430015976318351
40
0.11430015976318351
40
0.13931633614568137
40
0.13931633614568137
40
0.15936247978669618
40
0.15936247978669618
40
0.15936247978669618
40
0.15936247978669618
10
-14.352015999891872
20
20.003385022171891
30
0
10
-14.357141849336903
20
20.00338589501786
30
0
10
-14.362172892702787
20
20.004347080781521
30
0
10
-14.371400256541458
20
20.00815254590233
30
0
10
-14.375492764485395
20
20.010853859514608
30
0
10
-14.382529553464412
20
20.017733197942736
30
0
10
-14.385377095277137
20
20.021878289960771
30
0
10
-14.388651824784855
20
20.029454218008414
30
0
10
-14.389559539568102
20
20.0326087084356
30
0
10
-14.390460895752843
20
20.038438236073159
30
0
10
-14.390738695343611
20
20.041873156584842
30
0
10
-14.390282859428561
20
20.046056742688108
30
0
0
SPLINE
5
251
100
AcDbEntity
8
0
100
AcDbSpline
70
0
71
3
72
14
73
10
74
0
42
0.000000001
43
0.0000000001
44
0.0000000001
40
0
40
0
40
0
40
0
40
0.96363430427275309
40
0.96363430427275309
40
1.9313427061211172
40
1.9313427061211172
40
2.6536974454094886
40
2.6536974454094886
40
3.3964921530908345
40
3.3964921530908345
40
3.3964921530908345
40
3.3964921530908345
10
-14.390282859411039
20
20.046056742686197
30
0
10
-14.376580120821846
20
20.171773363472681
30
0
10
-14.339148366229429
20
20.293007782173529
30
0
10
-14.219522792216763
20
20.515987407755993
30
0
10
-14.13841069979976
20
20.615145870005506
30
0
10
-13.968134129678484
20
20.7565752619576
30
0
10
-13.887006138652458
20
20.806246825509554
30
0
10
-13.710542719322357
20
20.881808302617497
30
0
10
-13.616148300433132
20
20.906462245742361
30
0
10
-13.519323317396205
20
20.917015529395663
30
0
0
SPLINE
5
252
100
AcDbEntity
8
0
100
AcDbSpline
70
0
71
3
72
16
73
12
74
0
42
0.000000001
43
0.0000000001
44
0.0000000001
40
0
40
0
40
0
40
0
40
0.03907262494905589
40
0.03907262494905589
40
0.076296319762449882
40
0.076296319762449882
40
0.11434602474496849
40
0.11434602474496849
40
0.13853873787507867
40
0.13853873787507867
40
0.15757986286811404
40
0.15757986286811404
40
0.15757986286811404
40
0.15757986286811404
10
-14.568396126050146
20
19.833631059100085
30
0
10
-14.568863881917354
20
19.838737320686175
30
0
10
-14.568365850221207
20
19.8438381369246
30
0
10
-14.565418023594763
20
19.853382174123368
30
0
10
-14.563099163340773
20
19.857710025577752
30
0
10
-14.55688591613249
20
19.865347205642657
30
0
10
-14.553018722916532
20
19.868557748371042
30
0
10
-14.545866013155118
20
19.872453514464997
30
0
10
-14.542912762844459
20
19.873615853149175
30
0
10
-14.537432405346397
20
19.875029660417272
30
0
10
-14.534149011753819
20
19.875644583740236
30
0
10
-14.530056191536458
20
19.875644583740236
30
0
0
LINE
5
253
100
AcDbEntity
8
0
100
AcDbLine
10
-14.530056191536458
20
19.875644583740232
30
0
11
-14.528094165576173
21
19.875644583740236
31
0
0
SPLINE
5
254
100
AcDbEntity
8
0
100
AcDbSpline
70
0
71
3
72
14
73
10
74
0
42
0.000000001
43
0.0000000001
44
0.0000000001
40
0
40
0
40
0
40
0
40
0.038924616121939773
40
0.038924616121939773
40
0.076477792555693647
40
0.076477792555693647
40
0.11041645671682421
40
0.11041645671682421
40
0.14575799573508241
40
0.14575799573508241
40
0.14575799573508241
40
0.14575799573508241
10
-14.528094165576173
20
19.875644583740236
30
0
10
-14.522985948237336
20
19.875644583740236
30
0
10
-14.517960959312152
20
19.874680550971455
30
0
10
-14.508697492593381
20
19.870874700165228
30
0
10
-14.504560704809746
20
19.868147969660424
30
0
10
-14.497886701276729
20
19.861591386946465
30
0
10
-14.495293221149359
20
19.857951297083567
30
0
10
-14.491388680168383
20
19.849762281925006
30
0
10
-14.490180151111993
20
19.845280782547714
30
0
10
-14.489756497225509
20
19.840664537017016
30
0
0
SPLINE
5
255
100
AcDbEntity
8
0
100
AcDbSpline
70
0
71
3
72
14
73
10
74
0
42
0.000000001
43
0.0000000001
44
0.0000000001
40
0
40
0
40
0
40
0
40
0.74759178457723108
40
0.74759178457723108
40
1.3197664042317729
40
1.3197664042317729
40
1.762737468542005
40
1.762737468542005
40
2.4486860968763242
40
2.4486860968763242
40
2.4486860968763242
40
2.4486860968763242
10
-14.489756497250163
20
19.840664537015307
30
0
10
-14.480789040312736
20
19.742966064072078
30
0
10
-14.453938503769026
20
19.594258539891651
30
0
10
-14.303215825442743
20
19.310060382767148
30
0
10
-14.214502901382659
20
19.200534579654882
30
0
10
-14.025038579069877
20
19.041518700506312
30
0
10
-13.932435586132245
20
18.984817446280523
30
0
10
-13.678890576225093
20
18.877869212325724
30
0
10
-13.550846794335307
20
18.866137578130004
30
0
10
-13.511629953092312
20
18.862537987843506
30
0
0
SPLINE
5
256
100
AcDbEntity
8
0
100
AcDbSpline
70
0
71
3
72
14
73
10
74
0
42
0.000000001
43
0.0000000001
44
0.0000000001
40
0
40
0
40
0
40
0
40
0.038924355915084141
40
0.038924355915084141
40
0.076475830041463522
40
0.076475830041463522
40
0.11041597180988347
40
0.11041597180988347
40
0.14575817891364529
40
0.14575817891364529
40
0.14575817891364529
40
0.14575817891364529
10
-13.51162995310864
20
18.862537987869427
30
0
10
-13.506543146924001
20
18.862071149190356
30
0
10
-13.50162735493487
20
18.860651944939022
30
0
10
-13.492750730691263
20
18.856015502614188
30
0
10
-13.488880660993281
20
18.85292225697637
30
0
10
-13.482833787249593
20
18.84578323184186
30
0
10
-13.480583729893226
20
18.841921174738591
30
0
10
-13.477443841901792
20
18.83340933755947
30
0
10
-13.476649900846354
20
18.828836043305202
30
0
10
-13.476649900846354
20
18.824200319010419
30
0
0
LINE
5
257
100
AcDbEntity
8
0
100
AcDbLine
10
-13.476649900846354
20
18.824200319010419
30
0
11
-13.47665117424488
21
18.822292565923632
31
0
0
SPLINE
5
258
100
AcDbEntity
8
0
100
AcDbSpline
70
0
71
3
72
16
73
12
74
0
42
0.000000001
43
0.0000000001
44
0.0000000001
40
0
40
0
40
0
40
0
40
0.014169924354836227
40
0.014169924354836227
40
0.023092220453738821
40
0.023092220453738821
40
0.032216442464830665
40
0.032216442464830665
40
0.037955265700485699
40
0.037955265700485699
40
0.043929443909554278
40
0.043929443909554278
40
0.043929443909554278
40
0.043929443909554278
10
-13.47665117424488
20
18.822292565923632
30
0
10
-13.476651110447595
20
18.820432995799418
30
0
10
-13.476650900208092
20
18.814305800737809
30
0
10
-13.481517308976851
20
18.802670237489536
30
0
10
-13.484242758958155
20
18.798586196406116
30
0
10
-13.491164452296347
20
18.791582380419101
30
0
10
-13.495324782279518
20
18.788758767772617
30
0
10
-13.502791680514576
20
18.785583555294558
30
0
10
-13.505810288041554
20
18.78471685408898
30
0
10
-13.512127091170596
20
18.783707651735277
30
0
10
-13.515377339042869
20
18.783598493748215
30
0
10
-13.518664697052262
20
18.783899630102198
30
0
0
SPLINE
5
259
100
AcDbEntity
8
0
100
AcDbSpline
70
0
71
3
72
14
73
10
74
0
42
0.000000001
43
0.0000000001
44
0.0000000001
40
0
40
0
40
0
40
0
40
1.1375953767302474
40
1.1375953767302474
40
2.2783999140473576
40
2.2783999140473576
40
3.1812288493517826
40
3.1812288493517826
40
4.1110402221146192
40
4.1110402221146192
40
4.1110402221146192
40
4.1110402221146192
10
-13.518664697051818
20
18.783899630107012
30
0
10
-13.667332693963282
20
18.797521278757017
30
0
10
-13.811150578097637
20
18.839214077921046
30
0
10
-14.076564337819988
20
18.975808147839015
30
0
10
-14.195078599007186
20
19.069394387810085
30
0
10
-14.369670894806626
20
19.272236524129507
30
0
10
-14.432731569055465
20
19.37312353738502
30
0
10
-14.527396303472546
20
19.593769445101163
30
0
10
-14.557270512541985
20
19.712205309309049
30
0
10
-14.568396126045222
20
19.833631059100505
30
0
0
ARC
5
260
100
AcDbEntity
8
0
100
AcDbCircle
10
-15.421796500713558
20
21.968153006591791
30
0
40
0.025000000000001878
210
0
220
0
230
1
100
AcDbArc
50
-180
51
89.99957097560393
0
LINE
5
261
100
AcDbEntity
8
0
100
AcDbLine
10
-15.44679650071356
20
21.968153006591795
30
0
11
-15.646795083138025
21
21.968153006591798
31
0
0
ARC
5
262
100
AcDbEntity
8
0
100
AcDbCircle
10
-15.671795083138024
20
21.968153006591798
30
0
40
0.024999999999999082
210
0
220
-0
230
1
100
AcDbArc
50
-270
51
0
0
LINE
5
263
100
AcDbEntity
8
0
100
AcDbLine
10
-15.671795083138024
20
21.993153006591797
30
0
11
-15.67179508313802
21
22.157467530924482
31
0
0
SPLINE
5
264
100
AcDbEntity
8
0
100
AcDbSpline
70
4
71
3
72
8
73
4
74
0
42
0.000000001
43
0.0000000001
44
0.0000000001
40
0
40
0
40
0
40
0
40
1
40
1
40
1
40
1
41
1
41
1
41
1
41
1
10
-15.67179508313802
20
22.157467530924482
30
0
10
-15.689333789599608
20
22.157467530924482
30
0
10
-15.698113951139323
20
22.17867088989258
30
0
10
-15.685713641894532
20
22.191071199137369
30
0
0
SPLINE
5
265
100
AcDbEntity
8
0
100
AcDbSpline
70
4
71
3
72
8
73
4
74
0
42
0.000000001
43
0.0000000001
44
0.0000000001
40
0
40
0
40
0
40
0
40
1
40
1
40
1
40
1
41
1
41
1
41
1
41
1
10
-15.685713641894532
20
22.191071199137369
30
0
10
-15.673313332649739
20
22.203472779947919
30
0
10
-15.652109973681641
20
22.194692618408205
30
0
10
-15.652109973681641
20
22.177153911946615
30
0
0
LINE
5
266
100
AcDbEntity
8
0
100
AcDbLine
10
-15.652109973681641
20
22.177153911946615
30
0
11
-15.441480192594401
21
22.177153911946615
31
0
0
SPLINE
5
267
100
AcDbEntity
8
0
100
AcDbSpline
70
4
71
3
72
8
73
4
74
0
42
0.000000001
43
0.0000000001
44
0.0000000001
40
0
40
0
40
0
40
0
40
1
40
1
40
1
40
1
41
1
41
1
41
1
41
1
10
-15.441480192594401
20
22.177153911946615
30
0
10
-15.441478921028645
20
22.194692618408205
30
0
10
-15.420275562060546
20
22.203472779947919
30
0
10
-15.407876524381511
20
22.191072470703126
30
0
0
SPLINE
5
268
100
AcDbEntity
8
0
100
AcDbSpline
70
4
71
3
72
8
73
4
74
0
42
0.000000001
43
0.0000000001
44
0.0000000001
40
0
40
0
40
0
40
0
40
1
40
1
40
1
40
1
41
1
41
1
41
1
41
1
10
-15.407876524381511
20
22.191072470703126
30
0
10
-15.395476215136719
20
22.17867088989258
30
0
10
-15.404256376676432
20
22.157468802490232
30
0
10
-15.421795083138022
20
22.157468802490232
30
0
0
LINE
5
269
100
AcDbEntity
8
0
100
AcDbLine
10
-15.421795083138024
20
22.157468802490232
30
0
11
-15.421796313516351
21
21.993153006591093
31
0
0
ARC
5
270
100
AcDbEntity
8
0
100
AcDbCircle
10
-12.371789488248698
20
21.968151617515513
30
0
40
0.024999999999999082
210
0
220
0
230
1
100
AcDbArc
50
-180
51
90
0
LINE
5
271
100
AcDbEntity
8
0
100
AcDbLine
10
-12.396789488248697
20
21.968151617515517
30
0
11
-12.596789488249154
21
21.96815297344364
31
0
0
ARC
5
272
100
AcDbEntity
8
0
100
AcDbCircle
10
-12.621789488248702
20
21.968153124102319
30
0
40
0.024999999999999082
210
0
220
-0
230
1
100
AcDbArc
50
89.999999999991857
51
359.99965471637262
0
LINE
5
273
100
AcDbEntity
8
0
100
AcDbLine
10
-12.621789488248698
20
21.993153124102321
30
0
11
-12.621789488248698
21
22.157467530924482
31
0
0
SPLINE
5
274
100
AcDbEntity
8
0
100
AcDbSpline
70
4
71
3
72
8
73
4
74
0
42
0.000000001
43
0.0000000001
44
0.0000000001
40
0
40
0
40
0
40
0
40
1
40
1
40
1
40
1
41
1
41
1
41
1
41
1
10
-12.621789488248698
20
22.157467530924482
30
0
10
-12.639328194710286
20
22.157467530924482
30
0
10
-12.648108356250001
20
22.17867088989258
30
0
10
-12.63570804700521
20
22.191071199137369
30
0
0
SPLINE
5
275
100
AcDbEntity
8
0
100
AcDbSpline
70
4
71
3
72
8
73
4
74
0
42
0.000000001
43
0.0000000001
44
0.0000000001
40
0
40
0
40
0
40
0
40
1
40
1
40
1
40
1
41
1
41
1
41
1
41
1
10
-12.63570804700521
20
22.191071199137369
30
0
10
-12.623307737760417
20
22.203471508382162
30
0
10
-12.602104378792317
20
22.19469134684245
30
0
10
-12.602104378792317
20
22.177152640380861
30
0
0
LINE
5
276
100
AcDbEntity
8
0
100
AcDbLine
10
-12.602104378792317
20
22.177152640380857
30
0
11
-12.391474597705077
21
22.177152640380861
31
0
0
SPLINE
5
277
100
AcDbEntity
8
0
100
AcDbSpline
70
4
71
3
72
8
73
4
74
0
42
0.000000001
43
0.0000000001
44
0.0000000001
40
0
40
0
40
0
40
0
40
1
40
1
40
1
40
1
41
1
41
1
41
1
41
1
10
-12.391474597705077
20
22.177152640380861
30
0
10
-12.391473326139323
20
22.19469134684245
30
0
10
-12.370269967171224
20
22.203471508382162
30
0
10
-12.357870929492188
20
22.191069927571615
30
0
0
SPLINE
5
278
100
AcDbEntity
8
0
100
AcDbSpline
70
4
71
3
72
8
73
4
74
0
42
0.000000001
43
0.0000000001
44
0.0000000001
40
0
40
0
40
0
40
0
40
1
40
1
40
1
40
1
41
1
41
1
41
1
41
1
10
-12.357870929492188
20
22.191069927571615
30
0
10
-12.345470620247395
20
22.178669618326825
30
0
10
-12.354250781787108
20
22.157466259358724
30
0
10
-12.371789488248698
20
22.157466259358724
30
0
0
LINE
5
279
100
AcDbEntity
8
0
100
AcDbLine
10
-12.3717894882487
20
22.157466259358724
30
0
11
-12.371789488248698
21
21.993151617515512
31
0
0
ARC
5
280
100
AcDbEntity
8
0
100
AcDbCircle
10
-15.421796354703778
20
17.323303288125381
30
0
40
0.025000000000001878
210
-0
220
0
230
1
100
AcDbArc
50
-89.999999999995936
51
180
0
LINE
5
281
100
AcDbEntity
8
0
100
AcDbLine
10
-15.421796354703776
20
17.298303288125378
30
0
11
-15.421796354703776
21
17.13398806925456
31
0
0
SPLINE
5
282
100
AcDbEntity
8
0
100
AcDbSpline
70
4
71
3
72
8
73
4
74
0
42
0.000000001
43
0.0000000001
44
0.0000000001
40
0
40
0
40
0
40
0
40
1
40
1
40
1
40
1
41
1
41
1
41
1
41
1
10
-15.421796354703776
20
17.13398806925456
30
0
10
-15.404256376676432
20
17.13398806925456
30
0
10
-15.395477486702474
20
17.11278407450358
30
0
10
-15.407877795947265
20
17.10038376525879
30
0
0
SPLINE
5
283
100
AcDbEntity
8
0
100
AcDbSpline
70
4
71
3
72
8
73
4
74
0
42
0.000000001
43
0.0000000001
44
0.0000000001
40
0
40
0
40
0
40
0
40
1
40
1
40
1
40
1
41
1
41
1
41
1
41
1
10
-15.407877795947265
20
17.10038376525879
30
0
10
-15.420279376757813
20
17.087983456013998
30
0
10
-15.441481464160155
20
17.096764889119466
30
0
10
-15.441481464160155
20
17.114303595581056
30
0
0
LINE
5
284
100
AcDbEntity
8
0
100
AcDbLine
10
-15.441481464160157
20
17.114303595581056
30
0
11
-15.652111245247395
21
17.114303595581056
31
0
0
SPLINE
5
285
100
AcDbEntity
8
0
100
AcDbSpline
70
4
71
3
72
8
73
4
74
0
42
0.000000001
43
0.0000000001
44
0.0000000001
40
0
40
0
40
0
40
0
40
1
40
1
40
1
40
1
41
1
41
1
41
1
41
1
10
-15.652111245247395
20
17.114303595581056
30
0
10
-15.652111245247395
20
17.096764889119466
30
0
10
-15.673314604215493
20
17.087984091796873
30
0
10
-15.685714913460284
20
17.10038376525879
30
0
0
SPLINE
5
286
100
AcDbEntity
8
0
100
AcDbSpline
70
4
71
3
72
8
73
4
74
0
42
0.000000001
43
0.0000000001
44
0.0000000001
40
0
40
0
40
0
40
0
40
1
40
1
40
1
40
1
41
1
41
1
41
1
41
1
10
-15.685714913460284
20
17.10038376525879
30
0
10
-15.698115222705077
20
17.11278407450358
30
0
10
-15.689335061165364
20
17.133987433471681
30
0
10
-15.671796354703774
20
17.133987433471681
30
0
0
LINE
5
287
100
AcDbEntity
8
0
100
AcDbLine
10
-15.671796354703773
20
17.133987433471681
30
0
11
-15.671796354703774
21
17.298302534831983
31
0
0
ARC
5
288
100
AcDbEntity
8
0
100
AcDbCircle
10
-15.671796354703773
20
17.323302534831985
30
0
40
0.024999999999995075
210
0
220
-0
230
1
100
AcDbArc
50
0.00017264181368565733
51
269.99999999999591
0
LINE
5
289
100
AcDbEntity
8
0
100
AcDbLine
10
-15.64679635470389
20
17.323302610161321
30
0
11
-15.44679635470378
21
17.323303288125377
31
0
0
ARC
5
290
100
AcDbEntity
8
0
100
AcDbCircle
10
-12.621790759814452
20
17.323303923908256
30
0
40
0.024999999999999276
210
0
220
0
230
1
100
AcDbArc
50
-0.00017263970258983883
51
270
0
LINE
5
291
100
AcDbEntity
8
0
100
AcDbLine
10
-12.596790759814567
20
17.323303848578913
30
0
11
-12.396790759814339
21
17.323303245944196
31
0
0
ARC
5
292
100
AcDbEntity
8
0
100
AcDbCircle
10
-12.371790759814456
20
17.323303170614857
30
0
40
0.024999999999999082
210
-0
220
0
230
1
100
AcDbArc
50
-89.999999999995936
51
179.99982735818631
0
LINE
5
293
100
AcDbEntity
8
0
100
AcDbLine
10
-12.371790759814454
20
17.298303170614858
30
0
11
-12.371790759814454
21
17.13398806925456
31
0
0
SPLINE
5
294
100
AcDbEntity
8
0
100
AcDbSpline
70
4
71
3
72
8
73
4
74
0
42
0.000000001
43
0.0000000001
44
0.0000000001
40
0
40
0
40
0
40
0
40
1
40
1
40
1
40
1
41
1
41
1
41
1
41
1
10
-12.371790759814454
20
17.13398806925456
30
0
10
-12.354252053352864
20
17.13398806925456
30
0
10
-12.345471891813151
20
17.11278407450358
30
0
10
-12.357872201057942
20
17.100384401041666
30
0
0
SPLINE
5
295
100
AcDbEntity
8
0
100
AcDbSpline
70
4
71
3
72
8
73
4
74
0
42
0.000000001
43
0.0000000001
44
0.0000000001
40
0
40
0
40
0
40
0
40
1
40
1
40
1
40
1
41
1
41
1
41
1
41
1
10
-12.357872201057942
20
17.100384401041666
30
0
10
-12.370273781868489
20
17.087984091796873
30
0
10
-12.391475869270833
20
17.096764889119466
30
0
10
-12.391475869270833
20
17.114304231363931
30
0
0
LINE
5
296
100
AcDbEntity
8
0
100
AcDbLine
10
-12.391475869270833
20
17.114304231363931
30
0
11
-12.602105650358073
21
17.114304231363931
31
0
0
SPLINE
5
297
100
AcDbEntity
8
0
100
AcDbSpline
70
4
71
3
72
8
73
4
74
0
42
0.000000001
43
0.0000000001
44
0.0000000001
40
0
40
0
40
0
40
0
40
1
40
1
40
1
40
1
41
1
41
1
41
1
41
1
10
-12.602105650358073
20
17.114304231363931
30
0
10
-12.602105650358073
20
17.096765524902342
30
0
10
-12.623309009326171
20
17.087984727579752
30
0
10
-12.635709318570964
20
17.100384401041666
30
0
0
SPLINE
5
298
100
AcDbEntity
8
0
100
AcDbSpline
70
4
71
3
72
8
73
4
74
0
42
0.000000001
43
0.0000000001
44
0.0000000001
40
0
40
0
40
0
40
0
40
1
40
1
40
1
40
1
41
1
41
1
41
1
41
1
10
-12.635709318570964
20
17.100384401041666
30
0
10
-12.648109627815755
20
17.112784710286459
30
0
10
-12.639329466276042
20
17.13398806925456
30
0
10
-12.621790759814452
20
17.133988705037435
30
0
0
LINE
5
299
100
AcDbEntity
8
0
100
AcDbLine
10
-12.62179075981445
20
17.133988705037435
30
0
11
-12.621790759814452
21
17.298303923908257
31
0
0
SPLINE
5
300
100
AcDbEntity
8
0
100
AcDbSpline
70
4
71
3
72
8
73
4
74
0
42
0.000000001
43
0.0000000001
44
0.0000000001
40
-1
40
-1
40
-1
40
-1
40
0
40
0
40
0
40
0
41
1
41
1
41
1
41
1
10
-11.803464445524089
20
21.922751751302084
30
0
10
-11.803464445524089
20
21.972410208740236
30
0
10
-11.728976123583983
20
21.972410208740236
30
0
10
-11.728976123583983
20
21.922751751302084
30
0
0
SPLINE
5
301
100
AcDbEntity
8
0
100
AcDbSpline
70
4
71
3
72
8
73
4
74
0
42
0.000000001
43
0.0000000001
44
0.0000000001
40
-1
40
-1
40
-1
40
-1
40
0
40
0
40
0
40
0
41
1
41
1
41
1
41
1
10
-11.728976123583983
20
21.922751751302084
30
0
10
-11.728976123583983
20
21.873093293863931
30
0
10
-11.803464445524089
20
21.873093293863931
30
0
10
-11.803464445524089
20
21.922751751302084
30
0
0
SPLINE
5
302
100
AcDbEntity
8
0
100
AcDbSpline
70
4
71
3
72
8
73
4
74
0
42
0.000000001
43
0.0000000001
44
0.0000000001
40
-1
40
-1
40
-1
40
-1
40
0
40
0
40
0
40
0
41
1
41
1
41
1
41
1
10
-15.103382302376302
20
17.322848008829755
30
0
10
-15.103382302376302
20
17.372506466267904
30
0
10
-15.028895252001952
20
17.372506466267904
30
0
10
-15.028895252001952
20
17.322848008829755
30
0
0
SPLINE
5
303
100
AcDbEntity
8
0
100
AcDbSpline
70
4
71
3
72
8
73
4
74
0
42
0.000000001
43
0.0000000001
44
0.0000000001
40
-1
40
-1
40
-1
40
-1
40
0
40
0
40
0
40
0
41
1
41
1
41
1
41
1
10
-15.028895252001952
20
17.322848008829755
30
0
10
-15.028895252001952
20
17.273189551391603
30
0
10
-15.103382302376302
20
17.273189551391603
30
0
10
-15.103382302376302
20
17.322848008829755
30
0
0
SPLINE
5
304
100
AcDbEntity
8
0
100
AcDbSpline
70
4
71
3
72
8
73
4
74
0
42
0.000000001
43
0.0000000001
44
0.0000000001
40
-1
40
-1
40
-1
40
-1
40
0
40
0
40
0
40
0
41
1
41
1
41
1
41
1
10
-12.089921507291667
20
18.532019939778646
30
0
10
-12.089921507291667
20
18.57876905476888
30
0
10
-12.052025033089192
20
18.616665528971357
30
0
10
-12.005275918098958
20
18.616665528971357
30
0
0
SPLINE
5
305
100
AcDbEntity
8
0
100
AcDbSpline
70
4
71
3
72
8
73
4
74
0
42
0.000000001
43
0.0000000001
44
0.0000000001
40
-1
40
-1
40
-1
40
-1
40
0
40
0
40
0
40
0
41
1
41
1
41
1
41
1
10
-12.005275918098958
20
18.616665528971357
30
0
10
-11.958526803108724
20
18.616665528971357
30
0
10
-11.920630328906249
20
18.57876905476888
30
0
10
-11.920630328906249
20
18.532019939778646
30
0
0
SPLINE
5
306
100
AcDbEntity
8
0
100
AcDbSpline
70
4
71
3
72
8
73
4
74
0
42
0.000000001
43
0.0000000001
44
0.0000000001
40
-1
40
-1
40
-1
40
-1
40
0
40
0
40
0
40
0
41
1
41
1
41
1
41
1
10
-11.920630328906249
20
18.532019939778646
30
0
10
-11.920630328906249
20
18.48527146057129
30
0
10
-11.958526803108724
20
18.447374350585935
30
0
10
-12.005275918098958
20
18.447374350585935
30
0
0
SPLINE
5
307
100
AcDbEntity
8
0
100
AcDbSpline
70
4
71
3
72
8
73
4
74
0
42
0.000000001
43
0.0000000001
44
0.0000000001
40
-1
40
-1
40
-1
40
-1
40
0
40
0
40
0
40
0
41
1
41
1
41
1
41
1
10
-12.005275918098958
20
18.447374350585935
30
0
10
-12.052025033089192
20
18.447374350585935
30
0
10
-12.089921507291667
20
18.485270824788412
30
0
10
-12.089921507291667
20
18.532019939778646
30
0
0
SPLINE
5
308
100
AcDbEntity
8
0
100
AcDbSpline
70
4
71
3
72
8
73
4
74
0
42
0.000000001
43
0.0000000001
44
0.0000000001
40
-1
40
-1
40
-1
40
-1
40
0
40
0
40
0
40
0
41
1
41
1
41
1
41
1
10
-14.904820951871747
20
18.532019939778646
30
0
10
-14.904820951871747
20
18.578770326334634
30
0
10
-14.866921934537761
20
18.616669343668619
30
0
10
-14.82017154798177
20
18.616669343668619
30
0
0
SPLINE
5
309
100
AcDbEntity
8
0
100
AcDbSpline
70
4
71
3
72
8
73
4
74
0
42
0.000000001
43
0.0000000001
44
0.0000000001
40
-1
40
-1
40
-1
40
-1
40
0
40
0
40
0
40
0
41
1
41
1
41
1
41
1
10
-14.82017154798177
20
18.616669343668619
30
0
10
-14.773421161425782
20
18.616669343668619
30
0
10
-14.735522144091796
20
18.578770326334634
30
0
10
-14.735522144091796
20
18.532019939778646
30
0
0
SPLINE
5
310
100
AcDbEntity
8
0
100
AcDbSpline
70
4
71
3
72
8
73
4
74
0
42
0.000000001
43
0.0000000001
44
0.0000000001
40
-1
40
-1
40
-1
40
-1
40
0
40
0
40
0
40
0
41
1
41
1
41
1
41
1
10
-14.735522144091796
20
18.532019939778646
30
0
10
-14.735522144091796
20
18.485270189005533
30
0
10
-14.773421161425782
20
18.447371171671548
30
0
10
-14.82017154798177
20
18.447371171671548
30
0
0
SPLINE
5
311
100
AcDbEntity
8
0
100
AcDbSpline
70
4
71
3
72
8
73
4
74
0
42
0.000000001
43
0.0000000001
44
0.0000000001
40
-1
40
-1
40
-1
40
-1
40
0
40
0
40
0
40
0
41
1
41
1
41
1
41
1
10
-14.82017154798177
20
18.447371171671548
30
0
10
-14.866921934537761
20
18.447371171671548
30
0
10
-14.904820951871747
20
18.485270189005533
30
0
10
-14.904820951871747
20
18.532019939778646
30
0
0
SPLINE
5
312
100
AcDbEntity
8
0
100
AcDbSpline
70
4
71
3
72
8
73
4
74
0
42
0.000000001
43
0.0000000001
44
0.0000000001
40
-1
40
-1
40
-1
40
-1
40
0
40
0
40
0
40
0
41
1
41
1
41
1
41
1
10
-12.090051206998698
20
21.346980419514974
30
0
10
-12.090051206998698
20
21.393729534505209
30
0
10
-12.052154732796224
20
21.431627280273435
30
0
10
-12.005405617805989
20
21.431627280273435
30
0
0
SPLINE
5
313
100
AcDbEntity
8
0
100
AcDbSpline
70
4
71
3
72
8
73
4
74
0
42
0.000000001
43
0.0000000001
44
0.0000000001
40
-1
40
-1
40
-1
40
-1
40
0
40
0
40
0
40
0
41
1
41
1
41
1
41
1
10
-12.005405617805989
20
21.431627280273435
30
0
10
-11.958656502815755
20
21.431627280273435
30
0
10
-11.920758757047526
20
21.393729534505209
30
0
10
-11.920758757047526
20
21.346980419514974
30
0
0
SPLINE
5
314
100
AcDbEntity
8
0
100
AcDbSpline
70
4
71
3
72
8
73
4
74
0
42
0.000000001
43
0.0000000001
44
0.0000000001
40
-1
40
-1
40
-1
40
-1
40
0
40
0
40
0
40
0
41
1
41
1
41
1
41
1
10
-11.920758757047526
20
21.346980419514974
30
0
10
-11.920758757047526
20
21.30023130452474
30
0
10
-11.958656502815755
20
21.262333558756509
30
0
10
-12.005405617805989
20
21.262333558756509
30
0
0
SPLINE
5
315
100
AcDbEntity
8
0
100
AcDbSpline
70
4
71
3
72
8
73
4
74
0
42
0.000000001
43
0.0000000001
44
0.0000000001
40
-1
40
-1
40
-1
40
-1
40
0
40
0
40
0
40
0
41
1
41
1
41
1
41
1
10
-12.005405617805989
20
21.262333558756509
30
0
10
-12.052154732796224
20
21.262333558756509
30
0
10
-12.090051206998698
20
21.30023130452474
30
0
10
-12.090051206998698
20
21.346980419514974
30
0
0
SPLINE
5
316
100
AcDbEntity
8
0
100
AcDbSpline
70
4
71
3
72
8
73
4
74
0
42
0.000000001
43
0.0000000001
44
0.0000000001
40
-1
40
-1
40
-1
40
-1
40
0
40
0
40
0
40
0
41
1
41
1
41
1
41
1
10
-15.103426807177733
20
21.922721233723959
30
0
10
-15.103491657031249
20
21.972444541015626
30
0
10
-15.028835488411458
20
21.972444541015626
30
0
10
-15.028939756803384
20
21.922721233723959
30
0
0
SPLINE
5
317
100
AcDbEntity
8
0
100
AcDbSpline
70
4
71
3
72
8
73
4
74
0
42
0.000000001
43
0.0000000001
44
0.0000000001
40
-1
40
-1
40
-1
40
-1
40
0
40
0
40
0
40
0
41
1
41
1
41
1
41
1
10
-15.028939756803384
20
21.922721233723959
30
0
10
-15.02887490694987
20
21.872997926432291
30
0
10
-15.103531075569663
20
21.872997926432291
30
0
10
-15.103426807177733
20
21.922721233723959
30
0
0
SPLINE
5
318
100
AcDbEntity
8
0
100
AcDbSpline
70
4
71
3
72
8
73
4
74
0
42
0.000000001
43
0.0000000001
44
0.0000000001
40
-1
40
-1
40
-1
40
-1
40
0
40
0
40
0
40
0
41
1
41
1
41
1
41
1
10
-14.904930306526692
20
21.346977876383466
30
0
10
-14.904963367236329
20
21.393748607991537
30
0
10
-14.867056720507811
20
21.431680686035158
30
0
10
-14.820285988899739
20
21.431680686035158
30
0
0
SPLINE
5
319
100
AcDbEntity
8
0
100
AcDbSpline
70
4
71
3
72
8
73
4
74
0
42
0.000000001
43
0.0000000001
44
0.0000000001
40
-1
40
-1
40
-1
40
-1
40
0
40
0
40
0
40
0
41
1
41
1
41
1
41
1
10
-14.820285988899739
20
21.431680686035158
30
0
10
-14.773515257291665
20
21.431680686035158
30
0
10
-14.735641671272788
20
21.393748607991537
30
0
10
-14.735641671272788
20
21.346977876383466
30
0
0
SPLINE
5
320
100
AcDbEntity
8
0
100
AcDbSpline
70
4
71
3
72
8
73
4
74
0
42
0.000000001
43
0.0000000001
44
0.0000000001
40
-1
40
-1
40
-1
40
-1
40
0
40
0
40
0
40
0
41
1
41
1
41
1
41
1
10
-14.735641671272788
20
21.346977876383466
30
0
10
-14.735608610563151
20
21.300207144775392
30
0
10
-14.773515257291665
20
21.262275066731771
30
0
10
-14.820285988899739
20
21.262275066731771
30
0
0
SPLINE
5
321
100
AcDbEntity
8
0
100
AcDbSpline
70
4
71
3
72
8
73
4
74
0
42
0.000000001
43
0.0000000001
44
0.0000000001
40
-1
40
-1
40
-1
40
-1
40
0
40
0
40
0
40
0
41
1
41
1
41
1
41
1
10
-14.820285988899739
20
21.262275066731771
30
0
10
-14.867057992073569
20
21.262275066731771
30
0
10
-14.904930306526692
20
21.300207144775392
30
0
10
-14.904930306526692
20
21.346977876383466
30
0
0
SPLINE
5
322
100
AcDbEntity
8
0
100
AcDbSpline
70
4
71
3
72
8
73
4
74
0
42
0.000000001
43
0.0000000001
44
0.0000000001
40
-1
40
-1
40
-1
40
-1
40
0
40
0
40
0
40
0
41
1
41
1
41
1
41
1
10
-11.803361448697917
20
17.322741833089193
30
0
10
-11.803361448697917
20
17.372400290527345
30
0
10
-11.728873126757811
20
17.372400290527345
30
0
10
-11.728873126757811
20
17.322741833089193
30
0
0
SPLINE
5
323
100
AcDbEntity
8
0
100
AcDbSpline
70
4
71
3
72
8
73
4
74
0
42
0.000000001
43
0.0000000001
44
0.0000000001
40
-1
40
-1
40
-1
40
-1
40
0
40
0
40
0
40
0
41
1
41
1
41
1
41
1
10
-11.728873126757811
20
17.322741833089193
30
0
10
-11.728873126757811
20
17.273083375651041
30
0
10
-11.803361448697917
20
17.273083375651041
30
0
10
-11.803361448697917
20
17.322741833089193
30
0
0
LWPOLYLINE
5
324
100
AcDbEntity
8
0
100
AcDbPolyline
90
4
70
1
43
0.0
10
-16.761900775683596
20
22.385814037679037
10
-11.281706683886719
20
22.385814037679037
10
-11.281727028938802
20
16.905641562499998
10
-16.761900775683596
20
16.905641562499998
0
ENDSEC
0
SECTION
2
OBJECTS
0
DICTIONARY
5
C
100
AcDbDictionary
3
ACAD_GROUP
350
D
3
ACAD_MLINESTYLE
350
17
0
DICTIONARY
5
D
100
AcDbDictionary
0
DICTIONARY
5
1A
330
C
100
AcDbDictionary
0
DICTIONARY
5
17
100
AcDbDictionary
0
ENDSEC
0
EOF
