0
SECTION
2
HEADER
9
$INSUNITS
70
1
9
$ACADVER
1
AC1014
9
$HANDSEED
5
FFFF
0
ENDSEC
0
SECTION
2
TABLES
0
TABLE
2
VPORT
5
8
100
AcDbSymbolTable
0
ENDTAB
0
TABLE
2
LTYPE
5
5
100
AcDbSymbolTable
0
LTYPE
5
14
100
AcDbSymbolTableRecord
100
AcDbLinetypeTableRecord
2
BYBLOCK
70
0
0
LTYPE
5
15
100
AcDbSymbolTableRecord
100
AcDbLinetypeTableRecord
2
BYLAYER
70
0
0
ENDTAB
0
TABLE
2
LAYER
5
2
100
AcDbSymbolTable
70
2
0
LAYER
5
50
100
AcDbSymbolTableRecord
100
AcDbLayerTableRecord
2
0
70
0
6
CONTINUOUS
0
ENDTAB
0
TABLE
2
STYLE
5
3
100
AcDbSymbolTable
70
1
0
STYLE
5
11
100
AcDbSymbolTableRecord
100
AcDbTextStyleTableRecord
2
STANDARD
70
0
0
ENDTAB
0
TABLE
2
VIEW
5
6
100
AcDbSymbolTable
70
0
0
ENDTAB
0
TABLE
2
UCS
5
7
100
AcDbSymbolTable
70
0
0
ENDTAB
0
TABLE
2
APPID
5
9
100
AcDbSymbolTable
70
2
0
APPID
5
12
100
AcDbSymbolTableRecord
100
AcDbRegAppTableRecord
2
ACAD
70
0
0
ENDTAB
0
TABLE
2
DIMSTYLE
5
A
100
AcDbSymbolTable
70
1
0
ENDTAB
0
TABLE
2
BLOCK_RECORD
5
1
100
AcDbSymbolTable
70
1
0
BLOCK_RECORD
5
1F
100
AcDbSymbolTableRecord
100
AcDbBlockTableRecord
2
*MODEL_SPACE
0
BLOCK_RECORD
5
1B
100
AcDbSymbolTableRecord
100
AcDbBlockTableRecord
2
*PAPER_SPACE
0
ENDTAB
0
ENDSEC
0
SECTION
2
BLOCKS
0
BLOCK
5
20
100
AcDbEntity
100
AcDbBlockBegin
2
*MODEL_SPACE
0
ENDBLK
5
21
100
AcDbEntity
100
AcDbBlockEnd
0
BLOCK
5
1C
100
AcDbEntity
100
AcDbBlockBegin
2
*PAPER_SPACE
0
ENDBLK
5
1D
100
AcDbEntity
100
AcDbBlockEnd
0
ENDSEC
0
SECTION
2
ENTITIES
0
LWPOLYLINE
5
100
100
AcDbEntity
8
0
100
AcDbPolyline
90
28
70
1
43
0.0
10
-0.15157476185970031
20
2.6464157476795038
42
-2.4142135623731007
10
-0.13188972248962208
20
2.6661007870495821
10
0.057086655463134225
20
2.6661007870495816
10
0.057086655463134225
20
3.9991511807503692
10
-0.13188972248962139
20
3.9991511807503688
42
-2.4142135623730403
10
-0.15157476185970031
20
4.0188362201204484
10
-0.15157476185970031
20
5.3125165350810777
42
-2.4142135623731007
10
-0.13188972248962139
20
5.3322015744511573
10
0.057086655463134225
20
5.3322015744511573
10
0.057086655463134399
20
6.6652519681519431
10
-5.4230863448425195
20
6.6652519681519431
10
-5.4230863448425195
20
5.3322015744511573
10
-5.2341101949305653
20
5.3322015744511573
42
-2.4142135623730949
10
-5.2144251555604866
20
5.3125165350810786
10
-5.2144251555604866
20
4.0188362201204493
42
-2.4142135623730949
10
-5.2341101949305653
20
3.9991511807503701
10
-5.4230863448425195
20
3.9991511807503701
10
-5.4230863448425195
20
2.6661007870495821
10
-5.2341101949305653
20
2.6661007870495821
42
-2.4142135623730949
10
-5.2144251555604866
20
2.6464157476795034
10
-5.2144251555604866
20
1.3527354327188734
42
-2.4142135623730949
10
-5.2341101949305653
20
1.3330503933487945
10
-5.4230863448425195
20
1.3330503933487947
10
-5.4230863448425195
20
0.24999999964800693
10
0.057086655463134399
20
0.24999999964800673
10
0.057086655463134225
20
1.3330503933487945
10
-0.13188972248962139
20
1.3330503933487945
42
-2.4142135623731007
10
-0.15157476185970031
20
1.3527354327188734
0
LWPOLYLINE
5
101
100
AcDbEntity
8
0
100
AcDbPolyline
90
9
70
1
43
0.0
10
-3.1385923756671863
20
1.8949272625576177
10
-3.1329755593997173
20
1.8630727145757846
10
-2.7922542220541229
20
1.9231510792528828
10
-2.7954140082221826
20
1.9299272625576169
10
-3.1388245768715857
20
1.9299272625576176
10
-3.1388245768715857
20
1.8975813064008602
10
-3.1390532456180598
20
1.897540985931212
10
-3.1388245768715861
20
1.8962441410266198
10
-3.1388245768715857
20
1.8949272625576175
0
LWPOLYLINE
5
102
100
AcDbEntity
8
0
100
AcDbPolyline
90
9
70
1
43
0.0
10
-3.1388245768715857
20
1.9972732187143756
10
-3.1388245768715857
20
1.964927262557618
10
-2.8117347762576075
20
1.9649272625576168
10
-2.816922884521222
20
1.9760531966332913
10
-3.1329755617812856
20
2.0317818109593859
10
-3.1385923781228016
20
1.9999272625576177
10
-3.1388245768715857
20
1.9999272625576177
10
-3.1388245768715857
20
1.9986103980151007
10
-3.1390532479996285
20
1.9973135396039585
0
LWPOLYLINE
5
103
100
AcDbEntity
8
0
100
AcDbPolyline
90
6
70
1
43
0.0
10
-3.1208201893445993
20
2.1007183536702412
10
-3.1268978755629426
20
2.0662500823148138
10
-2.8349801417350071
20
2.0147771096936755
10
-2.9536559414047185
20
2.2692781833823772
10
-2.9853767139510019
20
2.2544865442214528
10
-2.895115388738033
20
2.0609205076478783
0
LWPOLYLINE
5
104
100
AcDbEntity
8
0
100
AcDbPolyline
90
12
70
1
43
0.0
10
-2.7769407878868684
20
1.8903113137044387
10
-3.1268978721991898
20
1.8286044376501098
10
-3.1208201859808469
20
1.7941361662946829
10
-2.7973115365085275
20
1.8511794696892097
10
-2.7536102764734078
20
1.7574618151089076
42
0.63707026080749718
10
-2.6140388772697642
20
1.7574618151089076
10
-2.5703376172346442
20
1.851179469689209
10
-2.2468289677623252
20
1.7941361662946811
10
-2.2407512815439823
20
1.8286044376501078
10
-2.5907083658563033
20
1.8903113137044387
10
-2.6457596498160467
20
1.7722534542698316
42
-0.63707026080750007
10
-2.7218895039271254
20
1.7722534542698323
0
LWPOLYLINE
5
105
100
AcDbEntity
8
0
100
AcDbPolyline
90
9
70
1
43
0.0
10
-2.5753949316890492
20
1.9231510792528823
10
-2.2346735943434548
20
1.8630727145757824
10
-2.2290567780759849
20
1.8949272625576159
10
-2.2288245768715855
20
1.8949272625576159
10
-2.228824576871586
20
1.896244141026618
10
-2.2285959081251119
20
1.8975409859312102
10
-2.228824576871586
20
1.8975813064008584
10
-2.228824576871586
20
1.9299272625576158
10
-2.5722351455209895
20
1.9299272625576165
0
LWPOLYLINE
5
106
100
AcDbEntity
8
0
100
AcDbPolyline
90
9
70
1
43
0.0
10
-2.5559143774855642
20
1.9649272625576162
10
-2.2288245768715855
20
1.9649272625576162
10
-2.2288245768715855
20
1.9972732187143738
10
-2.2285959057435423
20
1.9973135396039567
10
-2.228824576871586
20
1.9986103980150991
10
-2.2288245768715855
20
1.9999272625576161
10
-2.2290567756203701
20
1.9999272625576161
10
-2.2346735919618856
20
2.0317818109593846
10
-2.5507262692219497
20
1.9760531966332906
0
LWPOLYLINE
5
107
100
AcDbEntity
8
0
100
AcDbPolyline
90
6
70
1
43
0.0
10
-2.5326690120081641
20
2.0147771096936751
10
-2.2407512781802286
20
2.0662500823148124
10
-2.2468289643985715
20
2.1007183536702394
10
-2.4725337650051382
20
2.0609205076478774
10
-2.3822724397921697
20
2.2544865442214497
10
-2.4139932123384527
20
2.2692781833823741
0
LWPOLYLINE
5
108
100
AcDbEntity
8
0
100
AcDbPolyline
90
6
70
1
43
0.0
10
-2.6713570303790122
20
1.9878615967477464
42
-0.07479241445770296
10
-2.5844625011783777
20
1.9710394805209592
42
-0.44255894713729826
10
-2.5787393250119846
20
1.9573875323321095
10
-2.5851094188779871
20
1.9437268219521717
42
-0.38490568807080777
10
-2.5974624813400315
20
1.9385096999897979
42
0.072056699529607762
10
-2.6713570303790122
20
1.9528267119603522
0
CIRCLE
5
109
100
AcDbEntity
8
0
100
AcDbCircle
10
-1.163060958710094
20
6.415251968151944
30
0
40
0.05000000000000026
210
1.3896085042918146e-49
220
3.0814879110195774e-33
230
1
0
CIRCLE
5
110
100
AcDbEntity
8
0
100
AcDbCircle
10
-1.163060958710094
20
0.4999999996480069
30
0
40
0.05000000000000026
210
1.3896085042918146e-49
220
3.0814879110195774e-33
230
1
0
CIRCLE
5
111
100
AcDbEntity
8
0
100
AcDbCircle
10
-4.2029387357127828
20
6.415251968151944
30
0
40
0.049999999999999559
210
1.2032800747464063e-65
220
1.7804074331704966e-89
230
1
0
LWPOLYLINE
5
112
100
AcDbEntity
8
0
100
AcDbPolyline
90
6
70
1
43
0.0
10
-3.5941501174458397
20
3.1941658619968241
10
-3.6045231221094189
20
3.1607383168543914
42
0.10982228764292389
10
-3.400123784886691
20
3.1439145081041096
10
-3.359476846684911
20
3.056746867832866
10
-3.3277560741386276
20
3.0715385069937899
10
-3.3796453951790979
20
3.1828155150656205
42
-0.1246528681664929
0
LWPOLYLINE
5
113
100
AcDbEntity
8
0
100
AcDbPolyline
90
4
70
1
43
0.0
10
-3.1237950910016314
20
3.8864822006189197
10
-3.0965396935496732
20
3.9084399625662547
42
0.19953241035263747
10
-3.4150374540420074
20
4.0819154189642006
10
-3.4135968404811092
20
4.046540249751156
42
-0.19648304542743414
0
LWPOLYLINE
5
114
100
AcDbEntity
8
0
100
AcDbPolyline
90
4
70
1
43
0.0
10
-1.5842576855742885
20
3.9115206883017311
10
-1.5549725137158139
20
3.9314168355042236
42
0.19953241035263528
10
-1.8839355050940332
20
4.0841188581319603
10
-1.8853596598716651
20
4.0491478446612383
42
-0.19648304542743183
0
LWPOLYLINE
5
115
100
AcDbEntity
8
0
100
AcDbPolyline
90
4
70
1
43
0.0
10
-2.2124622031486609
20
2.7014628272871546
10
-2.180741430602378
20
2.6866711881262306
10
-2.0371341927039293
20
2.9946379036347119
10
-2.0688549652502126
20
3.0094295427956363
0
CIRCLE
5
116
100
AcDbEntity
8
0
100
AcDbCircle
10
-2.9367563445200502
20
2.7754508070482355
30
6.9935308637805131e-16
40
0.070000000000000145
210
-2.4651903288156624e-32
220
-3.081487911019578e-33
230
1
0
LWPOLYLINE
5
117
100
AcDbEntity
8
0
100
AcDbPolyline
90
6
70
1
43
0.0
10
-2.4286124604950721
20
2.9276614237950676
10
-2.3167040999067199
20
3.1055670226791148
10
-2.5060874793639316
20
2.9161836432219035
10
-2.4515680216414011
20
2.7468863797677292
10
-2.5491291565132985
20
2.546025219737353
10
-2.3798318930591238
20
2.7583641603408937
0
LWPOLYLINE
5
118
100
AcDbEntity
8
0
100
AcDbPolyline
90
4
70
1
43
0.0
10
-2.385031326692781
20
2.3313871475805237
10
-2.353310554146498
20
2.3165955084195988
10
-2.2097033162480497
20
2.624562223928081
10
-2.2414240887943326
20
2.6393538630890054
0
LWPOLYLINE
5
119
100
AcDbEntity
8
0
100
AcDbPolyline
90
4
70
1
43
0.0
10
-1.4726740682095796
20
3.5339926165288751
10
-1.4392560380334736
20
3.5223001735235613
42
0.19953241035263417
10
-1.5123285839928091
20
3.8775394737679574
10
-1.5412791773705306
20
3.8578706369167932
42
-0.19648304542743092
0
LWPOLYLINE
5
120
100
AcDbEntity
8
0
100
AcDbPolyline
90
6
70
1
43
0.0
10
-2.7180894067045176
20
3.4756229547705373
10
-3.0120996992237061
20
3.4756229547705382
42
0.20933777516444907
10
-3.0574371676741934
20
3.8519398092917867
10
-3.0850075524340985
20
3.8297282841646414
42
-0.23504061977188107
10
-3.0619547402354019
20
3.4406229547705371
10
-2.718089406704518
20
3.4406229547705371
0
LWPOLYLINE
5
121
100
AcDbEntity
8
0
100
AcDbPolyline
90
4
70
1
43
0.0
10
-3.8774404896428392
20
3.4675244427313787
10
-3.9104767240821792
20
3.4559655840477106
42
0.19953241035263131
10
-3.6684932409295659
20
3.185820157855749
10
-3.6580003567147803
20
3.2196340210650765
42
-0.19648304542742803
0
CIRCLE
5
122
100
AcDbEntity
8
0
100
AcDbCircle
10
-4.2029387357127854
20
0.49999999964800584
30
0
40
0.049999999999999906
210
1.2032800747463977e-65
220
1.7804074331704837e-89
230
1
0
LWPOLYLINE
5
123
100
AcDbEntity
8
0
100
AcDbPolyline
90
4
70
1
43
0.0
10
-3.3305149610392388
20
2.9946379036347168
10
-3.1869077231407918
20
2.6866711881262342
10
-3.1551869505945085
20
2.7014628272871586
10
-3.2987941884929559
20
3.0094295427956417
0
LWPOLYLINE
5
124
100
AcDbEntity
8
0
100
AcDbPolyline
90
4
70
1
43
0.0
10
-3.4822894938714963
20
4.0491478446612428
10
-3.4837136486491276
20
4.0841188581319647
42
0.19953241035263716
10
-3.8126766400273473
20
3.9314168355042312
10
-3.7833914681688712
20
3.9115206883017359
42
-0.19648304542743403
0
LWPOLYLINE
5
125
100
AcDbEntity
8
0
100
AcDbPolyline
90
4
70
1
43
0.0
10
-1.9540523132620522
20
4.0465402497511498
10
-1.9526116997011531
20
4.0819154189641962
42
0.19953241035263466
10
-2.2711094601934882
20
3.9084399625662543
10
-2.2438540627415304
20
3.8864822006189184
42
-0.19648304542743125
0
LWPOLYLINE
5
126
100
AcDbEntity
8
0
100
AcDbPolyline
90
6
70
1
43
0.0
10
-2.008172307058258
20
3.0567468678328611
10
-1.967525368856476
20
3.1439145081041056
42
0.10982228764292482
10
-1.7631260316337491
20
3.1607383168543866
10
-1.7734990362973289
20
3.1941658619968192
42
-0.12465286816649415
10
-1.9880037585640691
20
3.1828155150656179
10
-2.0398930796045414
20
3.0715385069937855
0
LWPOLYLINE
5
127
100
AcDbEntity
8
0
100
AcDbPolyline
90
6
70
1
43
0.0
10
-2.6962921233641604
20
1.9528267119603517
10
-2.6962921233641604
20
1.9878615967477462
42
0.074792414457702266
10
-2.7831866525647939
20
1.9710394805209597
42
0.44255894713730815
10
-2.7889098287311871
20
1.9573875323321097
10
-2.7825397348651846
20
1.9437268219521719
42
0.38490568807081688
10
-2.7701866724031401
20
1.9385096999897975
42
-0.072056699529606999
0
LWPOLYLINE
5
128
100
AcDbEntity
8
0
100
AcDbPolyline
90
8
70
1
43
0.0
10
-4.686436966584167
20
1.9138699160089745
10
-4.5612794862692052
20
1.9138699160089745
42
0.41421356237309825
10
-4.4042716122534573
20
2.0708777900247228
10
-4.4042716122534573
20
2.7411140104971641
42
0.41421356237309503
10
-4.5612794862692052
20
2.898121884512912
10
-4.686436966584167
20
2.898121884512912
42
0.4142135623730957
10
-4.8434448405999149
20
2.7411140104971636
10
-4.8434448405999149
20
2.0708777900247228
42
0.41421356237309764
0
LWPOLYLINE
5
129
100
AcDbEntity
8
0
100
AcDbPolyline
90
4
70
1
43
0.0
10
-1.709648797028384
20
3.2196340210650658
10
-1.6991559128136029
20
3.1858201578557432
42
0.19953241035263419
10
-1.4571724296609869
20
3.4559655840477035
10
-1.4902086641003238
20
3.4675244427313707
42
-0.19648304542743
0
LWPOLYLINE
5
130
100
AcDbEntity
8
0
100
AcDbPolyline
90
6
70
1
43
0.0
10
-2.2826416013090562
20
3.8297282841646365
10
-2.310211986068968
20
3.8519398092917867
42
0.20933777516444946
10
-2.3555494545194593
20
3.4756229547705364
10
-2.6495597470386478
20
3.4756229547705373
10
-2.6495597470386478
20
3.4406229547705371
10
-2.3056944135077613
20
3.4406229547705376
42
-0.23504061977188059
0
LWPOLYLINE
5
131
100
AcDbEntity
8
0
100
AcDbPolyline
90
4
70
1
43
0.0
10
-3.8263699763726304
20
3.857870636916799
10
-3.8553205697503521
20
3.8775394737679649
42
0.19953241035263511
10
-3.9283931157096914
20
3.5223001735235688
10
-3.894975085533579
20
3.5339926165288822
42
-0.19648304542743217
0
LWPOLYLINE
5
132
100
AcDbEntity
8
0
100
AcDbPolyline
90
4
70
1
43
0.0
10
-3.157945837495121
20
2.6245622239280846
10
-3.0143385995966732
20
2.3165955084196019
10
-2.9826178270503902
20
2.3313871475805263
10
-3.1262250649488372
20
2.639353863089009
0
ENDSEC
0
SECTION
2
OBJECTS
0
DICTIONARY
5
C
100
AcDbDictionary
3
ACAD_GROUP
350
D
3
ACAD_MLINESTYLE
350
17
0
DICTIONARY
5
D
100
AcDbDictionary
0
DICTIONARY
5
1A
330
C
100
AcDbDictionary
0
DICTIONARY
5
17
100
AcDbDictionary
0
ENDSEC
0
EOF
