0
SECTION
2
HEADER
9
$INSUNITS
70
1
9
$ACADVER
1
AC1014
9
$HANDSEED
5
FFFF
0
ENDSEC
0
SECTION
2
TABLES
0
TABLE
2
VPORT
5
8
100
AcDbSymbolTable
0
ENDTAB
0
TABLE
2
LTYPE
5
5
100
AcDbSymbolTable
0
LTYPE
5
14
100
AcDbSymbolTableRecord
100
AcDbLinetypeTableRecord
2
BYBLOCK
70
0
0
LTYPE
5
15
100
AcDbSymbolTableRecord
100
AcDbLinetypeTableRecord
2
BYLAYER
70
0
0
ENDTAB
0
TABLE
2
LAYER
5
2
100
AcDbSymbolTable
70
2
0
LAYER
5
50
100
AcDbSymbolTableRecord
100
AcDbLayerTableRecord
2
0
70
0
6
CONTINUOUS
0
ENDTAB
0
TABLE
2
STYLE
5
3
100
AcDbSymbolTable
70
1
0
STYLE
5
11
100
AcDbSymbolTableRecord
100
AcDbTextStyleTableRecord
2
STANDARD
70
0
0
ENDTAB
0
TABLE
2
VIEW
5
6
100
AcDbSymbolTable
70
0
0
ENDTAB
0
TABLE
2
UCS
5
7
100
AcDbSymbolTable
70
0
0
ENDTAB
0
TABLE
2
APPID
5
9
100
AcDbSymbolTable
70
2
0
APPID
5
12
100
AcDbSymbolTableRecord
100
AcDbRegAppTableRecord
2
ACAD
70
0
0
ENDTAB
0
TABLE
2
DIMSTYLE
5
A
100
AcDbSymbolTable
70
1
0
ENDTAB
0
TABLE
2
BLOCK_RECORD
5
1
100
AcDbSymbolTable
70
1
0
BLOCK_RECORD
5
1F
100
AcDbSymbolTableRecord
100
AcDbBlockTableRecord
2
*MODEL_SPACE
0
BLOCK_RECORD
5
1B
100
AcDbSymbolTableRecord
100
AcDbBlockTableRecord
2
*PAPER_SPACE
0
ENDTAB
0
ENDSEC
0
SECTION
2
BLOCKS
0
BLOCK
5
20
100
AcDbEntity
100
AcDbBlockBegin
2
*MODEL_SPACE
0
ENDBLK
5
21
100
AcDbEntity
100
AcDbBlockEnd
0
BLOCK
5
1C
100
AcDbEntity
100
AcDbBlockBegin
2
*PAPER_SPACE
0
ENDBLK
5
1D
100
AcDbEntity
100
AcDbBlockEnd
0
ENDSEC
0
SECTION
2
ENTITIES
0
SPLINE
5
100
100
AcDbEntity
8
0
100
AcDbSpline
70
0
71
3
72
16
73
12
74
0
42
0.000000001
43
0.0000000001
44
0.0000000001
40
0
40
0
40
0
40
0
40
0.019858835101346221
40
0.019858835101346221
40
0.039713917470843609
40
0.039713917470843609
40
0.059561422455252727
40
0.059561422455252727
40
0.074426817012115495
40
0.074426817012115495
40
0.089291916550762629
40
0.089291916550762629
40
0.089291916550762629
40
0.089291916550762629
10
-3.7783250567804001
20
1.4758023118963941
30
5.2451481478353848e-16
10
-3.7757288276152767
20
1.4755751712765304
30
-1.7483827159451283e-16
10
-3.7732017349143878
20
1.4748431087478231
30
1.7483827159451283e-16
10
-3.7685709821636482
20
1.4724516926952436
30
1.7483827159451283e-16
10
-3.7665114529464949
20
1.4708153441494949
30
1.7483827159451283e-16
10
-3.7631364735581623
20
1.4668459023813281
30
1.7483827159451283e-16
10
-3.7618530121422311
20
1.4645510266859589
30
-1.7483827159451283e-16
10
-3.7604409624512964
20
1.4602199594141771
30
1.7483827159451283e-16
10
-3.7601109383864775
20
1.4582867024882387
30
5.2451481478353848e-16
10
-3.7600213116436696
20
1.4543861479822782
30
5.2451481478353848e-16
10
-3.7602621796986639
20
1.4524398128749183
30
-1.7483827159451283e-16
10
-3.7607810603551921
20
1.4505593133895598
30
1.7483827159451283e-16
0
LINE
5
101
100
AcDbEntity
8
0
100
AcDbLine
10
-3.7783250567804001
20
1.4758023118963941
30
5.2451481478353848e-16
11
-3.8074149677437794
21
1.4783473493286685
31
5.2178296678987425e-16
0
ARC
5
102
100
AcDbEntity
8
0
100
AcDbCircle
10
-3.8074149677437785
20
1.3783473493286689
30
5.2451481478353848e-16
40
0.099999999999999645
210
1.1102230246251546e-16
220
2.7318479936643504e-17
230
1
100
AcDbArc
50
90.000000000000512
51
180
0
LINE
5
103
100
AcDbEntity
8
0
100
AcDbLine
10
-3.9074149677437786
20
1.3783473493286686
30
5.3561704502979e-16
11
-3.9074149677437791
21
0.91637795275590594
31
-1.7483827159451283e-16
0
ARC
5
104
100
AcDbEntity
8
0
100
AcDbCircle
10
-3.6074149677437783
20
0.91637795275590606
30
-1.7483827159451275e-16
40
0.30000000000000088
210
-2.5881263294652536e-31
220
-1.5246370707918661e-31
230
1
100
AcDbArc
50
180
51
270
0
LINE
5
105
100
AcDbEntity
8
0
100
AcDbLine
10
-3.6074149677437783
20
0.6163779527559059
30
-1.7483827159451283e-16
11
-3.5815625000000346
21
0.6163779527559059
31
-1.7210642360084857e-16
0
LINE
5
106
100
AcDbEntity
8
0
100
AcDbLine
10
-3.5815625000000346
20
0.6163779527559059
30
-1.7210642360084857e-16
11
-3.5815625000000795
21
0.73964521266492
31
-1.7483826422561278e-16
0
SPLINE
5
107
100
AcDbEntity
8
0
100
AcDbSpline
70
0
71
3
72
12
73
8
74
0
42
0.000000001
43
0.0000000001
44
0.0000000001
40
-0.32236652493662948
40
-0.32236652493662948
40
-0.32236652493662948
40
-0.32236652493662948
40
-0.26360021461478789
40
-0.26360021461478789
40
-0.17574108017296372
40
-0.17574108017296372
40
-0.13255217375674233
40
-0.13255217375674233
40
-0.13255217375674233
40
-0.13255217375674233
10
-3.5815625000001092
20
0.81195650113739293
30
5.2451481478353848e-16
10
-3.5846972429285309
20
0.80494533633814258
30
-1.7483827159451283e-16
10
-3.5869140000572322
20
0.79754137417692894
30
1.7483827159451283e-16
10
-3.5899838391092418
20
0.77854563678477529
30
1.7483827159451283e-16
10
-3.5895832996009305
20
0.76691307626126803
30
1.7483827159451283e-16
10
-3.5856770080843274
20
0.75016477808048376
30
1.7483827159451283e-16
10
-3.5838657095975845
20
0.74479474875944141
30
-5.2451481478353848e-16
10
-3.5815625000000821
20
0.73964521266492
30
5.2451481478353848e-16
0
LINE
5
108
100
AcDbEntity
8
0
100
AcDbLine
10
-3.5815625000001092
20
0.81195650113739293
30
5.2451481478353848e-16
11
-3.5815625000001026
21
0.84999999999990494
31
-1.7483825685674506e-16
0
ARC
5
109
100
AcDbEntity
8
0
100
AcDbCircle
10
-3.1250000000000226
20
0.84999999999999598
30
9.9028769427678988e-44
40
0.45656250000001841
210
-7.7631934923594866e-42
220
3.7865323450608645e-29
230
1
100
AcDbArc
50
149.99688853748046
51
180
0
SPLINE
5
110
100
AcDbEntity
8
0
100
AcDbSpline
70
0
71
3
72
15
73
11
74
0
42
0.000000001
43
0.0000000001
44
0.0000000001
40
1.3409364999379469
40
1.3409364999379469
40
1.3409364999379469
40
1.3409364999379469
40
1.3687144916040326
40
1.3687144916040326
40
1.418549775400771
40
1.418549775400771
40
1.418549775400771
40
1.5065129794720924
40
1.5065129794720924
40
1.5496868862489399
40
1.5496868862489399
40
1.5496868862489399
40
1.5496868862489399
10
-3.4750437973308519
20
1.1431188434005297
30
5.2451481478353848e-16
10
-3.4782415550274761
20
1.1413799650291154
30
-1.7483827159451283e-16
10
-3.4813316757367265
20
1.1394446192307954
30
1.7483827159451283e-16
10
-3.4896142705565212
20
1.1335164831376507
30
1.7483827159451283e-16
10
-3.4944952827619553
20
1.1291334744588484
30
-1.7483827159451283e-16
10
-3.4988496935202904
20
1.1242537677662312
30
-1.7483827159451283e-16
10
-3.5065355717367765
20
1.1156407008202982
30
1.7483827159451283e-16
10
-3.5124658793403412
20
1.1056089693842168
30
1.7483827159451283e-16
10
-3.5181894246228791
20
1.0893792614800832
30
1.7483827159451283e-16
10
-3.5195522729930806
20
1.0838803907947645
30
1.7483827159451283e-16
10
-3.5203823259584488
20
1.0783027216788192
30
1.7483827159451283e-16
0
ARC
5
111
100
AcDbEntity
8
0
100
AcDbCircle
10
-3.1250000000000226
20
0.84999999999999598
30
9.9028769427678988e-44
40
0.45656250000001836
210
-4.2560074844507288e-17
220
3.5638854362191932e-17
230
1
100
AcDbArc
50
103.53023470491138
51
140.05794736737391
0
SPLINE
5
112
100
AcDbEntity
8
0
100
AcDbSpline
70
0
71
3
72
14
73
10
74
0
42
0.000000001
43
0.0000000001
44
0.0000000001
40
1.1721769094536161
40
1.1721769094536161
40
1.1721769094536161
40
1.1721769094536161
40
1.2309969164232972
40
1.2309969164232972
40
1.3190885875552403
40
1.3190885875552403
40
1.3689434724647127
40
1.3689434724647127
40
1.3746191578315987
40
1.3746191578315987
40
1.3746191578315987
40
1.3746191578315987
10
-3.155837610802168
20
1.3055198768070004
30
1.7483827159451283e-16
10
-3.1631908444321506
20
1.3077611133779177
30
-1.7483827159451283e-16
10
-3.1708200574013921
20
1.3090424799633826
30
0
10
-3.1900876069182327
20
1.3097345352617262
30
3.4967654318902565e-16
10
-3.2016121769205941
20
1.3078890657885014
30
1.7483827159451283e-16
10
-3.2185958772723611
20
1.3016212966794065
30
-1.7483827159451283e-16
10
-3.2244647270515805
20
1.2986842724127483
30
5.2451481478353848e-16
10
-3.2305822212636106
20
1.2947239786963141
30
0
10
-3.2312021639497113
20
1.294311469320548
30
-1.7483827159451283e-16
10
-3.2318166531020402
20
1.2938913369579685
30
0
0
ARC
5
113
100
AcDbEntity
8
0
100
AcDbCircle
10
-3.1250000000000226
20
0.84999999999999598
30
9.9028769427678988e-44
40
0.45656250000001813
210
4.6867386087572389e-19
220
-6.9230479863866957e-18
230
1
100
AcDbArc
50
56.944793626035448
51
93.872878606127884
0
SPLINE
5
114
100
AcDbEntity
8
0
100
AcDbSpline
70
0
71
3
72
12
73
8
74
0
42
0.000000001
43
0.0000000001
44
0.0000000001
40
0.98772303106139547
40
0.98772303106139547
40
0.98772303106139547
40
0.98772303106139547
40
1.0549935852637597
40
1.0549935852637597
40
1.1430295899201894
40
1.1430295899201894
40
1.1818816857613217
40
1.1818816857613217
40
1.1818816857613217
40
1.1818816857613217
10
-2.8175133069690772
20
1.1874925925337378
30
0
10
-2.8216024194856937
20
1.1952827825752317
30
1.7483827159451283e-16
10
-2.826836377523382
20
1.2024345018546052
30
0
10
-2.8411853816973238
20
1.2169092629354448
30
3.4967654318902565e-16
10
-2.8508446270688945
20
1.22344731512177
30
3.4967654318902565e-16
10
-2.866179292576474
20
1.2299396425900335
30
1.7483827159451283e-16
10
-2.8710262124926098
20
1.2315148205869841
30
-1.7483827159451283e-16
10
-2.8759694139485354
20
1.2326657596612252
30
0
0
ARC
5
115
100
AcDbEntity
8
0
100
AcDbCircle
10
-3.1250000000000226
20
0.84999999999999598
30
9.9028769427678988e-44
40
0.45656250000001841
210
-4.1034036618359332e-17
220
3.7385769349081617e-17
230
1
100
AcDbArc
50
10.385891907947101
51
47.663609111036259
0
SPLINE
5
116
100
AcDbEntity
8
0
100
AcDbSpline
70
0
71
3
72
12
73
8
74
0
42
0.000000001
43
0.0000000001
44
0.0000000001
40
0.2226561158877246
40
0.2226561158877246
40
0.2226561158877246
40
0.2226561158877246
40
0.26365570990535242
40
0.26365570990535242
40
0.35148605017719808
40
0.35148605017719808
40
0.41206808980103288
40
0.41206808980103288
40
0.41206808980103288
40
0.41206808980103288
10
-2.6685586527519525
20
0.86051726811580265
30
0
10
-2.6668862521977439
20
0.86560454219643579
30
1.7483827159451283e-16
10
-2.6656750699580272
20
0.87084507089631202
30
-1.7483827159451283e-16
10
-2.6633863331793437
20
0.88759588620922447
30
-1.7483827159451283e-16
10
-2.66407157035386
20
0.89921093189003254
30
1.7483827159451283e-16
10
-2.6689556428428136
20
0.91806511887480446
30
0
10
-2.6719721444009159
20
0.92544235179323531
30
0
10
-2.6759178699002111
20
0.93230769606342323
30
1.7483827159451283e-16
0
ARC
5
117
100
AcDbEntity
8
0
100
AcDbCircle
10
-3.1250000000000226
20
0.84999999999999598
30
9.9028769427678988e-44
40
0.45656250000001841
210
3.9960688632185148e-20
220
-1.7342631523124857e-18
230
1
100
AcDbArc
50
0
51
1.3199690775048096
0
LINE
5
118
100
AcDbEntity
8
0
100
AcDbLine
10
-2.668437500000004
20
0.84999999999994602
30
-1.8244551903719486e-20
11
-2.6684375000000156
21
0.61740014815865008
31
-1.7483826422562025e-16
0
SPLINE
5
119
100
AcDbEntity
8
0
100
AcDbSpline
70
0
71
3
72
8
73
4
74
0
42
0.000000001
43
0.0000000001
44
0.0000000001
40
0.026102450338047988
40
0.026102450338047988
40
0.026102450338047988
40
0.026102450338047988
40
0.028900429301917621
40
0.028900429301917621
40
0.028900429301917621
40
0.028900429301917621
10
-2.6680390333615356
20
0.61637795275594476
30
0
10
-2.6681697597262297
20
0.61671954101623749
30
-3.4967654318902565e-16
10
-2.6683025851114985
20
0.61706027911300643
30
3.4967654318902565e-16
10
-2.6684374999999894
20
0.61740014815865008
30
0
0
LINE
5
120
100
AcDbEntity
8
0
100
AcDbLine
10
-2.6680390333615356
20
0.61637795275594476
30
0
11
-2.540964566928996
21
0.61637795275590568
31
-1.6391087961985577e-16
0
LINE
5
121
100
AcDbEntity
8
0
100
AcDbLine
10
-2.540964566928996
20
0.61637795275590568
30
-1.6391087961985577e-16
11
-2.5409645669289955
21
1.0609010373179335
31
1.748382715945128e-16
0
ARC
5
122
100
AcDbEntity
8
0
100
AcDbCircle
10
-2.8756102362203335
20
1.0609010373179335
30
7.2791053016210483e-33
40
0.33464566929133771
210
-5.2245789394125134e-16
220
4.8381156163377949e-18
230
1
100
AcDbArc
50
0
51
85.000000000000128
0
LINE
5
123
100
AcDbEntity
8
0
100
AcDbLine
10
-2.8464439443559604
20
1.3942732788053287
30
-6.0659210846842069e-33
11
-3.494075030274451
21
1.4509336569701803
31
-1.7483827159451283e-16
0
SPLINE
5
124
100
AcDbEntity
8
0
100
AcDbSpline
70
0
71
3
72
16
73
12
74
0
42
0.000000001
43
0.0000000001
44
0.0000000001
40
0
40
0
40
0
40
0
40
0.01983667283167144
40
0.01983667283167144
40
0.039674725114679024
40
0.039674725114679024
40
0.059520487965504035
40
0.059520487965504035
40
0.074403647473510304
40
0.074403647473510304
40
0.089287778016389444
40
0.089287778016389444
40
0.089287778016389444
40
0.089287778016389444
10
-3.5157378169229481
20
1.4291232518662269
30
-1.7483827159451283e-16
10
-3.5159836788386989
20
1.4317148535920685
30
5.2451481478353848e-16
10
-3.5157209857544025
20
1.4343296344515586
30
-1.7483827159451283e-16
10
-3.5142079972311899
20
1.439311617112472
30
-1.7483827159451283e-16
10
-3.5129721381184464
20
1.4416310512194537
30
1.7483827159451283e-16
10
-3.5096804120574099
20
1.445666708655382
30
8.7419135797256413e-16
10
-3.507655745450152
20
1.447344062549786
30
1.7483827159451283e-16
10
-3.503649981868413
20
1.4495180250716095
30
1.7483827159451283e-16
10
-3.5018060921579308
20
1.4501933375447504
30
1.7483827159451283e-16
10
-3.4979813311474239
20
1.4509884215729274
30
1.7483827159451283e-16
10
-3.4960209264097775
20
1.4511039008224202
30
-1.7483827159451283e-16
10
-3.494075030274451
20
1.4509336569701803
30
1.7483827159451283e-16
0
SPLINE
5
125
100
AcDbEntity
8
0
100
AcDbSpline
70
0
71
3
72
16
73
12
74
0
42
0.000000001
43
0.0000000001
44
0.0000000001
40
-0.96952872683783631
40
-0.96952872683783631
40
-0.96952872683783631
40
-0.96952872683783631
40
-0.94060513270280488
40
-0.94060513270280488
40
-0.82306996396277032
40
-0.82306996396277032
40
-0.7055083157788653
40
-0.7055083157788653
40
-0.58791584380303852
40
-0.58791584380303852
40
-0.54261623821026495
40
-0.54261623821026495
40
-0.54261623821026495
40
-0.54261623821026495
10
-3.5157378169229481
20
1.4291232518662269
30
-1.7483827159451283e-16
10
-3.5153775985609537
20
1.4250855971593948
30
1.7483827159451283e-16
10
-3.515179324396112
20
1.4211185819074843
30
1.7483827159451283e-16
10
-3.515179324396112
20
1.401898271818893
30
1.7483827159451283e-16
10
-3.5187914910766516
20
1.3837446790294774
30
-5.2451481478353848e-16
10
-3.5306008770952895
20
1.3552416727231973
30
1.7483827159451283e-16
10
-3.5408888630422291
20
1.3398497134413556
30
5.2451481478353848e-16
10
-3.5627131563374497
20
1.3180312058106518
30
-1.7483827159451283e-16
10
-3.5781122589815761
20
1.3077451734187691
30
1.7483827159451283e-16
10
-3.5978626726355891
20
1.2995663243091098
30
-1.7483827159451283e-16
10
-3.6039345562047012
20
1.2976319723007252
30
-1.7483827159451283e-16
10
-3.6101761040371576
20
1.2959871266326097
30
1.7483827159451283e-16
0
LINE
5
126
100
AcDbEntity
8
0
100
AcDbLine
10
-3.6101761040371576
20
1.2959871266326097
30
1.748382715945128e-16
11
-3.6101761040371576
21
1.1673259812757766
31
1.7483827159451278e-16
0
LINE
5
127
100
AcDbEntity
8
0
100
AcDbLine
10
-3.6101761040371576
20
1.1673259812757766
30
1.7483827159451278e-16
11
-3.6701761040371577
21
1.1673259812757766
31
-1.7483827159451283e-16
0
LINE
5
128
100
AcDbEntity
8
0
100
AcDbLine
10
-3.6701761040371577
20
1.1673259812757766
30
-1.7483827159451283e-16
11
-3.6701761040371577
21
1.2959592409164833
31
-1.7483827159451278e-16
0
SPLINE
5
129
100
AcDbEntity
8
0
100
AcDbSpline
70
0
71
3
72
17
73
13
74
0
42
0.000000001
43
0.0000000001
44
0.0000000001
40
-0.39825552332122272
40
-0.39825552332122272
40
-0.39825552332122272
40
-0.39825552332122272
40
-0.35268522357106802
40
-0.35268522357106802
40
-0.23509643388126245
40
-0.23509643388126245
40
-0.11753664950025011
40
-0.11753664950025011
40
0
40
0
40
0
40
0.080026153335373662
40
0.080026153335373662
40
0.080026153335373662
40
0.080026153335373662
10
-3.6701761040371581
20
1.2959592409164833
30
1.7483827159451283e-16
10
-3.676457494146077
20
1.2976087529327474
30
-1.7483827159451283e-16
10
-3.6825691438896522
20
1.2995526316528192
30
-1.7483827159451283e-16
10
-3.7023518809626799
20
1.3077450115129421
30
-1.7483827159451283e-16
10
-3.7177503836647587
20
1.3180308980661981
30
1.7483827159451283e-16
10
-3.7395738466113633
20
1.3398492068130861
30
5.2451481478353848e-16
10
-3.7498613787105493
20
1.3552411164024978
30
-1.7483827159451283e-16
10
-3.7616703927011961
20
1.3837442224332979
30
-1.7483827159451283e-16
10
-3.7652824362050445
20
1.4018980774934053
30
-1.7483827159451283e-16
10
-3.7652824362050445
20
1.4173228346456692
30
-1.7483827159451283e-16
10
-3.7652824362050445
20
1.4278249545059547
30
-1.7483827159451283e-16
10
-3.7636079936876596
20
1.4395922079578292
30
-1.7483827159451283e-16
10
-3.7607810603551921
20
1.4505593133895598
30
1.7483827159451283e-16
0
CIRCLE
5
130
100
AcDbEntity
8
0
100
AcDbCircle
10
-3.6796418124217625
20
1.0629921353708101
30
-1.7483827159451283e-16
40
0.039370078740157341
210
1.1102230246251565e-16
220
-0
230
1
0
CIRCLE
5
131
100
AcDbEntity
8
0
100
AcDbCircle
10
-3.6796418124217625
20
0.76771654481962903
30
-1.7483827159451283e-16
40
0.039370078740157341
210
1.1102230246251565e-16
220
-0
230
1
0
CIRCLE
5
132
100
AcDbEntity
8
0
100
AcDbCircle
10
-3.6796418124217625
20
0.96456693852041642
30
-1.7483827159451283e-16
40
0.039370078740157341
210
1.1102230246251565e-16
220
-0
230
1
0
CIRCLE
5
133
100
AcDbEntity
8
0
100
AcDbCircle
10
-3.6796418124217625
20
0.86614174167002278
30
-1.7483827159451283e-16
40
0.039370078740157341
210
1.1102230246251565e-16
220
-0
230
1
0
ENDSEC
0
SECTION
2
OBJECTS
0
DICTIONARY
5
C
100
AcDbDictionary
3
ACAD_GROUP
350
D
3
ACAD_MLINESTYLE
350
17
0
DICTIONARY
5
D
100
AcDbDictionary
0
DICTIONARY
5
1A
330
C
100
AcDbDictionary
0
DICTIONARY
5
17
100
AcDbDictionary
0
ENDSEC
0
EOF
