0
SECTION
2
HEADER
9
$INSUNITS
70
1
9
$ACADVER
1
AC1014
9
$HANDSEED
5
FFFF
0
ENDSEC
0
SECTION
2
TABLES
0
TABLE
2
VPORT
5
8
100
AcDbSymbolTable
0
ENDTAB
0
TABLE
2
LTYPE
5
5
100
AcDbSymbolTable
0
LTYPE
5
14
100
AcDbSymbolTableRecord
100
AcDbLinetypeTableRecord
2
BYBLOCK
70
0
0
LTYPE
5
15
100
AcDbSymbolTableRecord
100
AcDbLinetypeTableRecord
2
BYLAYER
70
0
0
ENDTAB
0
TABLE
2
LAYER
5
2
100
AcDbSymbolTable
70
2
0
LAYER
5
50
100
AcDbSymbolTableRecord
100
AcDbLayerTableRecord
2
0
70
0
6
CONTINUOUS
0
ENDTAB
0
TABLE
2
STYLE
5
3
100
AcDbSymbolTable
70
1
0
STYLE
5
11
100
AcDbSymbolTableRecord
100
AcDbTextStyleTableRecord
2
STANDARD
70
0
0
ENDTAB
0
TABLE
2
VIEW
5
6
100
AcDbSymbolTable
70
0
0
ENDTAB
0
TABLE
2
UCS
5
7
100
AcDbSymbolTable
70
0
0
ENDTAB
0
TABLE
2
APPID
5
9
100
AcDbSymbolTable
70
2
0
APPID
5
12
100
AcDbSymbolTableRecord
100
AcDbRegAppTableRecord
2
ACAD
70
0
0
ENDTAB
0
TABLE
2
DIMSTYLE
5
A
100
AcDbSymbolTable
70
1
0
ENDTAB
0
TABLE
2
BLOCK_RECORD
5
1
100
AcDbSymbolTable
70
1
0
BLOCK_RECORD
5
1F
100
AcDbSymbolTableRecord
100
AcDbBlockTableRecord
2
*MODEL_SPACE
0
BLOCK_RECORD
5
1B
100
AcDbSymbolTableRecord
100
AcDbBlockTableRecord
2
*PAPER_SPACE
0
ENDTAB
0
ENDSEC
0
SECTION
2
BLOCKS
0
BLOCK
5
20
100
AcDbEntity
100
AcDbBlockBegin
2
*MODEL_SPACE
0
ENDBLK
5
21
100
AcDbEntity
100
AcDbBlockEnd
0
BLOCK
5
1C
100
AcDbEntity
100
AcDbBlockBegin
2
*PAPER_SPACE
0
ENDBLK
5
1D
100
AcDbEntity
100
AcDbBlockEnd
0
ENDSEC
0
SECTION
2
ENTITIES
0
LINE
5
100
100
AcDbEntity
8
0
100
AcDbLine
10
-2.6684378607730994
20
0.62792011911478041
30
1.7483827159451283e-16
11
-2.6684378607731003
21
0.6163779527559059
31
1.7483827159451275e-16
0
LINE
5
101
100
AcDbEntity
8
0
100
AcDbLine
10
-2.6684378607731003
20
0.6163779527559059
30
1.7483827159451275e-16
11
-2.5409645669289955
21
0.61637795275590568
31
1.8576566356916988e-16
0
LINE
5
102
100
AcDbEntity
8
0
100
AcDbLine
10
-2.5409645669289955
20
0.61637795275590568
30
1.8576566356916988e-16
11
-2.5409645669289955
21
1.0609010373179335
31
-1.9410947470989462e-32
0
ARC
5
103
100
AcDbEntity
8
0
100
AcDbCircle
10
-2.8756102362203335
20
1.0609010373179335
30
-1.7483827159451288e-16
40
0.33464566929133771
210
-5.2245789394125144e-16
220
4.838115616337486e-18
230
1
100
AcDbArc
50
0
51
85.000000000000114
0
LINE
5
104
100
AcDbEntity
8
0
100
AcDbLine
10
-2.8464439443559604
20
1.3942732788053285
30
-1.7483827159451288e-16
11
-3.4940750272601449
21
1.4509336567064628
31
1.7483827159451283e-16
0
SPLINE
5
105
100
AcDbEntity
8
0
100
AcDbSpline
70
0
71
3
72
16
73
12
74
0
42
0.000000001
43
0.0000000001
44
0.0000000001
40
0
40
0
40
0
40
0
40
0.019836672816220029
40
0.019836672816220029
40
0.039674725086446885
40
0.039674725086446885
40
0.059520487939261284
40
0.059520487939261284
40
0.074403647428433833
40
0.074403647428433833
40
0.089287777954307368
40
0.089287777954307368
40
0.089287777954307368
40
0.089287777954307368
10
-3.5157378139292708
20
1.4291232516414518
30
3.4967654318902565e-16
10
-3.515983675840352
20
1.4317148533656998
30
3.4967654318902565e-16
10
-3.5157209827517297
20
1.4343296342225726
30
0
10
-3.514207994220913
20
1.4393116168773066
30
0
10
-3.512972135104909
20
1.4416310509805226
30
0
10
-3.5096804090380225
20
1.4456667084099244
30
0
10
-3.5076557424277142
20
1.4473440623010805
30
0
10
-3.5036499788444857
20
1.4495180248157586
30
-3.4967654318902565e-16
10
-3.5018060891354899
20
1.4501933372858207
30
0
10
-3.4979813281288239
20
1.450988421309974
30
0
10
-3.4960209233933131
20
1.4511039005585142
30
0
10
-3.4940750272601449
20
1.450933656706463
30
0
0
SPLINE
5
106
100
AcDbEntity
8
0
100
AcDbSpline
70
0
71
3
72
16
73
12
74
0
42
0.000000001
43
0.0000000001
44
0.0000000001
40
-0.96952872667214085
40
-0.96952872667214085
40
-0.96952872667214085
40
-0.96952872667214085
40
-0.94060513307412907
40
-0.94060513307412907
40
-0.82306996436518243
40
-0.82306996436518243
40
-0.70550831616166332
40
-0.70550831616166332
40
-0.58791584410719233
40
-0.58791584410719233
40
-0.54261536040992087
40
-0.54261536040992087
40
-0.54261536040992087
40
-0.54261536040992087
10
-3.5157378139292708
20
1.429123251641452
30
3.4967654318902565e-16
10
-3.5153549781034212
20
1.4250878238600309
30
0
10
-3.5151793214232865
20
1.4211185818370096
30
3.4967654318902565e-16
10
-3.5151793214232865
20
1.4018982718229729
30
0
10
-3.5187914881050668
20
1.3837446790387962
30
3.4967654318902565e-16
10
-3.5306008741281207
20
1.3552416727359753
30
0
10
-3.5408888600812869
20
1.3398497134545801
30
3.4967654318902565e-16
10
-3.562713153391166
20
1.3180312058202996
30
3.4967654318902565e-16
10
-3.5781122560485259
20
1.3077451734259309
30
3.4967654318902565e-16
10
-3.5978627761822732
20
1.2995662802258259
30
0
10
-3.6039120179842219
20
1.2975375137487233
30
3.4967654318902565e-16
10
-3.610176465750063
20
1.2959870363901267
30
0
0
LINE
5
107
100
AcDbEntity
8
0
100
AcDbLine
10
-3.610176465750063
20
1.2959870363901269
30
-6.5216944911838192e-32
11
-3.6101764648102423
21
1.1673259812757766
31
-3.4967654318902565e-16
0
LINE
5
108
100
AcDbEntity
8
0
100
AcDbLine
10
-3.6101764648102423
20
1.1673259812757766
30
-3.4967654318902565e-16
11
-3.6701764648102428
21
1.1673259812757766
31
-3.4967654318902565e-16
0
LINE
5
109
100
AcDbEntity
8
0
100
AcDbLine
10
-3.6701764648102428
20
1.1673259812757766
30
-3.4967654318902565e-16
11
-3.6701764639294581
21
1.2959593301241097
31
-3.4967654318902565e-16
0
SPLINE
5
110
100
AcDbEntity
8
0
100
AcDbSpline
70
0
71
3
72
17
73
13
74
0
42
0.000000001
43
0.0000000001
44
0.0000000001
40
-0.39825465038293106
40
-0.39825465038293106
40
-0.39825465038293106
40
-0.39825465038293106
40
-0.3526852236304463
40
-0.3526852236304463
40
-0.23509643386905266
40
-0.23509643386905266
40
-0.11753664947199849
40
-0.11753664947199849
40
0
40
0
40
0
40
0.080026152834804978
40
0.080026152834804978
40
0.080026152834804978
40
0.080026152834804978
10
-3.6701764638800083
20
1.2959593303290566
30
0
10
-3.6764806469348823
20
1.2975134858012718
30
0
10
-3.6825692469184603
20
1.299552675493258
30
-3.4967654318902565e-16
10
-3.7023518781521041
20
1.3077450115197942
30
0
10
-3.7177503808662666
20
1.318030898075256
30
0
10
-3.7395738438259372
20
1.33984920682534
30
0
10
-3.7498613759304802
20
1.35524111641421
30
0
10
-3.7616703899248303
20
1.3837442224417416
30
0
10
-3.7652824334296842
20
1.401898077497113
30
0
10
-3.7652824334296842
20
1.4173228346456692
30
0
10
-3.7652824334296842
20
1.427824954440263
30
0
10
-3.7637933796585097
20
1.4396422169682412
30
0
10
-3.7607810576332623
20
1.4505593131838785
30
0
0
SPLINE
5
111
100
AcDbEntity
8
0
100
AcDbSpline
70
0
71
3
72
16
73
12
74
0
42
0.000000001
43
0.0000000001
44
0.0000000001
40
0
40
0
40
0
40
0
40
0.019858835128348514
40
0.019858835128348514
40
0.03971391751766104
40
0.03971391751766104
40
0.05956142250737069
40
0.05956142250737069
40
0.074426817011402871
40
0.074426817011402871
40
0.089291916496655035
40
0.089291916496655035
40
0.089291916496655035
40
0.089291916496655035
10
-3.7783250540810602
20
1.4758023116602326
30
3.4967654318902565e-16
10
-3.7757288249124064
20
1.4755751710400602
30
0
10
-3.7732017322079852
20
1.4748431085103721
30
0
10
-3.7685709794518654
20
1.4724516924548701
30
0
10
-3.7665114502326449
20
1.4708153439074787
30
0
10
-3.7631364708426798
20
1.4668459021364735
30
3.4967654318902565e-16
10
-3.7618530094266682
20
1.4645510264404484
30
0
10
-3.7604409597386437
20
1.4602199591743996
30
0
10
-3.760110935674549
20
1.4582867022555619
30
0
10
-3.7600213089294727
20
1.4543861477636963
30
0
10
-3.7602621769814659
20
1.4524398126632196
30
0
10
-3.7607810576332623
20
1.4505593131838788
30
0
0
LINE
5
112
100
AcDbEntity
8
0
100
AcDbLine
10
-3.7783250540810602
20
1.4758023116602326
30
3.4967654318902565e-16
11
-3.8074149677437794
21
1.4783473493286685
31
0
0
ARC
5
113
100
AcDbEntity
8
0
100
AcDbCircle
10
-3.8074149677437803
20
1.3783473493286693
30
0
40
0.099999999999999298
210
0
220
-0
230
1
100
AcDbArc
50
89.999999999999503
51
180
0
LINE
5
114
100
AcDbEntity
8
0
100
AcDbLine
10
-3.9074149677437791
20
1.3783473493286686
30
0
11
-3.9074149677437791
21
0.91637795275590594
31
0
0
ARC
5
115
100
AcDbEntity
8
0
100
AcDbCircle
10
-3.6074149677437783
20
0.91637795275590606
30
2.9116421206484193e-32
40
0.30000000000000088
210
-9.705473735494708e-32
220
7.8157221281908289e-32
230
1
100
AcDbArc
50
180
51
270
0
LINE
5
116
100
AcDbEntity
8
0
100
AcDbLine
10
-3.6074149677437783
20
0.6163779527559059
30
1.890241042492815e-32
11
-3.5815628607731411
21
0.6163779527559059
31
-2.7318479936642629e-18
0
LINE
5
117
100
AcDbEntity
8
0
100
AcDbLine
10
-3.5815628607731411
20
0.6163779527559059
30
-2.7318479936642629e-18
11
-3.5815628607731504
21
0.66373613772124573
31
0
0
SPLINE
5
118
100
AcDbEntity
8
0
100
AcDbSpline
70
0
71
3
72
12
73
8
74
0
42
0.000000001
43
0.0000000001
44
0.0000000001
40
-0.32241581597657393
40
-0.32241581597657393
40
-0.32241581597657393
40
-0.32241581597657393
40
-0.2636002748682873
40
-0.2636002748682873
40
-0.1757410906895357
40
-0.1757410906895357
40
-0.13245907068270421
40
-0.13245907068270421
40
-0.13245907068270421
40
-0.13245907068270421
10
-3.5815532037637885
20
0.73609837063115768
30
-3.4967654318902565e-16
10
-3.5846923527323256
20
0.72908209870918461
30
-3.4967654318902565e-16
10
-3.5869119535896292
20
0.72167215039220123
30
0
10
-3.5899833523673585
20
0.7026701137156639
30
0
10
-3.5895831354195593
20
0.69103753499745502
30
0
10
-3.5856745320912791
20
0.67427722156863157
30
0
10
-3.5838583796240089
20
0.6688958723381272
30
0
10
-3.5815481889445793
20
0.66373613772124596
30
-3.4967654318902565e-16
0
LINE
5
119
100
AcDbEntity
8
0
100
AcDbLine
10
-3.5815628607731651
20
0.73609837063115557
30
0
11
-3.5815628607731882
21
0.84999999999990494
31
-2.4846012762866511e-30
0
ARC
5
120
100
AcDbEntity
8
0
100
AcDbCircle
10
-3.1250003607727166
20
0.84999999999999221
30
1.7483827159447178e-16
40
0.45656250000040899
210
8.9877593065731053e-29
220
3.5991500444954798e-29
230
1
100
AcDbArc
50
177.49623424213451
51
180
0
ARC
5
121
100
AcDbEntity
8
0
100
AcDbCircle
10
-3.1249999999998801
20
0.84999999999999498
30
3.4967654318901698e-16
40
0.4565624999999176
210
5.5458157735754753e-17
220
-2.4250054798933393e-18
230
1
100
AcDbArc
50
167.36770224974632
51
177.49623621996381
0
ARC
5
122
100
AcDbEntity
8
0
100
AcDbCircle
10
-3.1250003607727166
20
0.84999999999999221
30
1.7483827159447178e-16
40
0.45656250000039011
210
-5.7202408182912629e-17
220
-1.4019284998470328e-18
230
1
100
AcDbArc
50
161.59434733925247
51
167.36769234844857
0
SPLINE
5
123
100
AcDbEntity
8
0
100
AcDbSpline
70
0
71
3
72
12
73
8
74
0
42
0.000000001
43
0.0000000001
44
0.0000000001
40
0.14086027244037261
40
0.14086027244037261
40
0.14086027244037261
40
0.14086027244037261
40
0.22033945794621834
40
0.22033945794621834
40
0.3082772369667669
40
0.3082772369667669
40
0.35080419868621071
40
0.35080419868621071
40
0.35080419868621071
40
0.35080419868621071
10
-3.526650529375758
20
1.0670736424335732
30
0
10
-3.5346295526036098
20
1.0603828682240575
30
0
10
-3.5413752153871556
20
1.0523327010949273
30
-3.4967654318902565e-16
10
-3.5523156036948857
20
1.0332798565031214
30
0
10
-3.5560524884753182
20
1.0222455302474183
30
-3.4967654318902565e-16
10
-3.5583006103137929
20
1.0052727783315027
30
0
10
-3.5585070823245517
20
0.99969666948681646
30
0
10
-3.5581917255441486
20
0.9941510557069918
30
0
0
ARC
5
124
100
AcDbEntity
8
0
100
AcDbCircle
10
-3.1250003607727166
20
0.84999999999999221
30
1.7483827159447178e-16
40
0.4565625000003431
210
9.7670557638054655e-17
220
-5.2786492730158995e-17
230
1
100
AcDbArc
50
145.65165208576136
51
151.61079562292019
0
ARC
5
125
100
AcDbEntity
8
0
100
AcDbCircle
10
-3.1249999999998801
20
0.84999999999999498
30
3.4967654318901698e-16
40
0.45656249999995935
210
4.5831268316465808e-17
220
-3.1320644238671996e-17
230
1
100
AcDbArc
50
134.5781079295646
51
145.651677630807
0
ARC
5
126
100
AcDbEntity
8
0
100
AcDbCircle
10
-3.1250003607727166
20
0.84999999999999221
30
1.7483827159447178e-16
40
0.4565625000002827
210
-3.9540297359428105e-17
220
-3.8962197008735461e-17
230
1
100
AcDbArc
50
132.06799687745271
51
134.5780756805888
0
ARC
5
127
100
AcDbEntity
8
0
100
AcDbCircle
10
-3.1249999999998801
20
0.84999999999999498
30
3.4967654318901698e-16
40
0.45656249999995574
210
-4.1208692324058371e-17
220
-3.7193165877092949e-17
230
1
100
AcDbArc
50
120.99446078596172
51
132.06803048716756
0
ARC
5
128
100
AcDbEntity
8
0
100
AcDbCircle
10
-3.1250003607727166
20
0.84999999999999221
30
1.7483827159447178e-16
40
0.45656250000018767
210
7.6170850802128346e-17
220
-1.8999402888543939e-17
230
1
100
AcDbArc
50
115.1654909928335
51
120.99442197564159
0
SPLINE
5
129
100
AcDbEntity
8
0
100
AcDbSpline
70
0
71
3
72
14
73
10
74
0
42
0.000000001
43
0.0000000001
44
0.0000000001
40
0.16865833755622711
40
0.16865833755622711
40
0.16865833755622711
40
0.16865833755622711
40
0.175864269180635
40
0.175864269180635
40
0.26393900459518399
40
0.26393900459518399
40
0.35202062470014656
40
0.35202062470014656
40
0.37317326424204689
40
0.37317326424204689
40
0.37317326424204689
40
0.37317326424204689
10
-3.2463865033065282
20
1.2901350058346737
30
0
10
-3.2473263280177647
20
1.290227284725169
30
0
10
-3.2482682308651492
20
1.2903046252480677
30
5.2451481478353848e-16
10
-3.2607454422745343
20
1.2911285145371276
30
3.4967654318902565e-16
10
-3.2723181999960791
20
1.2896301156471879
30
-3.4967654318902565e-16
10
-3.2942374678119344
20
1.2822816275476632
30
0
10
-3.3043752550135643
20
1.2765011380571849
30
0
10
-3.3152174667413434
20
1.2671229310484022
30
0
10
-3.3172269001105628
20
1.2652124859389835
30
0
10
-3.3191405883690233
20
1.2632148060206165
30
-3.4967654318902565e-16
0
ARC
5
130
100
AcDbEntity
8
0
100
AcDbCircle
10
-3.1250003607727166
20
0.84999999999999221
30
1.7483827159447178e-16
40
0.45656250000008503
210
-6.0892582171283268e-17
220
1.1998055062450951e-17
230
1
100
AcDbArc
50
99.278391484604043
51
105.41848240442131
0
ARC
5
131
100
AcDbEntity
8
0
100
AcDbCircle
10
-3.1249999999998801
20
0.84999999999999498
30
3.4967654318901698e-16
40
0.4565624999999579
210
2.2375489900232339e-18
220
-1.369621732291391e-17
230
1
100
AcDbArc
50
88.204866465779332
51
99.278436167017418
0
ARC
5
132
100
AcDbEntity
8
0
100
AcDbCircle
10
-3.1250003607727166
20
0.84999999999999221
30
1.7483827159447178e-16
40
0.45656249999999271
210
-6.7471300500745311e-30
220
-8.9623990603802386e-29
230
1
100
AcDbArc
50
85.694743876387136
51
88.204821213233018
0
ARC
5
133
100
AcDbEntity
8
0
100
AcDbCircle
10
-3.1249999999998801
20
0.84999999999999498
30
3.4967654318901698e-16
40
0.45656249999995252
210
1.1070903196222417e-16
220
-8.3343797648554676e-18
230
1
100
AcDbArc
50
74.621219322180849
51
85.694789023402933
0
ARC
5
134
100
AcDbEntity
8
0
100
AcDbCircle
10
-3.1250003607727166
20
0.84999999999999221
30
1.7483827159447178e-16
40
0.45656249999987913
210
-3.2798699752610544e-29
220
-8.3679320923422873e-29
230
1
100
AcDbArc
50
68.596953691028446
51
74.621175668545433
0
SPLINE
5
135
100
AcDbEntity
8
0
100
AcDbSpline
70
0
71
3
72
12
73
8
74
0
42
0.000000001
43
0.0000000001
44
0.0000000001
40
1.0251591797054875
40
1.0251591797054875
40
1.0251591797054875
40
1.0251591797054875
40
1.054951915034918
40
1.054951915034918
40
1.1429082556011472
40
1.1429082556011472
40
1.2212060652304217
40
1.2212060652304217
40
1.2212060652304217
40
1.2212060652304217
10
-2.8914183981062727
20
1.242305755858311
30
-1.7483827159451283e-16
10
-2.8938732524088246
20
1.2453277055414278
30
-1.7483827159451283e-16
10
-2.8965296602630874
20
1.2481910235587237
30
1.7483827159451283e-16
10
-2.9077661412234872
20
1.2587990227163957
30
1.7483827159451283e-16
10
-2.917626509094033
20
1.2650093691523376
30
-1.7483827159451283e-16
10
-2.9379867546261487
20
1.2728523982888167
30
0
10
-2.9481357657764651
20
1.2748505862430368
30
0
10
-2.9583897488540836
20
1.275073645270848
30
-1.7483827159451283e-16
0
ARC
5
136
100
AcDbEntity
8
0
100
AcDbCircle
10
-3.1250003607727166
20
0.84999999999999221
30
1.7483827159447178e-16
40
0.45656249999978543
210
-1.1469128953285162e-16
220
1.3289389457561082e-16
230
1
100
AcDbArc
50
52.905158590350467
51
59.230095420680243
0
ARC
5
137
100
AcDbEntity
8
0
100
AcDbCircle
10
-3.1249999999998801
20
0.84999999999999498
30
3.4967654318901698e-16
40
0.45656249999996895
210
-3.3480755533481267e-17
220
-4.4277837796453678e-17
230
1
100
AcDbArc
50
41.831625001998042
51
52.90519470325286
0
ARC
5
138
100
AcDbEntity
8
0
100
AcDbCircle
10
-3.1250003607727166
20
0.84999999999999221
30
1.7483827159447178e-16
40
0.45656249999971849
210
-4.3390229657236494e-18
220
-7.8384620313883598e-17
230
1
100
AcDbArc
50
39.321518870291293
51
41.831594806288912
0
ARC
5
139
100
AcDbEntity
8
0
100
AcDbCircle
10
-3.1249999999998801
20
0.84999999999999498
30
3.4967654318901698e-16
40
0.45656249999996518
210
-8.5887070317086485e-17
220
-7.0351707843029743e-17
230
1
100
AcDbArc
50
28.247977858395739
51
39.321547559636521
0
ARC
5
140
100
AcDbEntity
8
0
100
AcDbCircle
10
-3.1250003607727166
20
0.84999999999999221
30
1.7483827159447178e-16
40
0.45656249999965764
210
9.780039217882286e-17
220
5.2545551036651038e-17
230
1
100
AcDbArc
50
22.009441288723096
51
28.247956430380803
0
SPLINE
5
141
100
AcDbEntity
8
0
100
AcDbSpline
70
0
71
3
72
12
73
8
74
0
42
0.000000001
43
0.0000000001
44
0.0000000001
40
0.83666462167473354
40
0.83666462167473354
40
0.83666462167473354
40
0.83666462167473354
40
0.87919556190719328
40
0.87919556190719328
40
0.96698031711936805
40
0.96698031711936805
40
1.0263572228688447
40
1.0263572228688447
40
1.0263572228688447
40
1.0263572228688447
10
-2.679994563324291
20
0.95217130086704505
30
-1.7483827159451283e-16
10
-2.6793560274936392
20
0.95768962640325883
30
-1.7483827159451283e-16
10
-2.6792369770418905
20
0.96326886781962617
30
0
10
-2.6804907691001771
20
0.98032458903406328
30
1.7483827159451283e-16
10
-2.6835696939786224
20
0.99153900284907692
30
-1.7483827159451283e-16
10
-2.6921830657880812
20
1.0088246610015821
30
0
10
-2.6965556045896384
20
1.015296021004529
30
-1.7483827159451283e-16
10
-2.7017016873707873
20
1.0211049087316109
30
-1.7483827159451283e-16
0
ARC
5
142
100
AcDbEntity
8
0
100
AcDbCircle
10
-3.1250003607727166
20
0.84999999999999221
30
1.7483827159447178e-16
40
0.45656249999963089
210
1.113123921826572e-16
220
1.1317949685898417e-17
230
1
100
AcDbArc
50
6.5319480890457928
51
12.930747458641148
0
ARC
5
143
100
AcDbEntity
8
0
100
AcDbCircle
10
-3.1249999999998801
20
0.84999999999999498
30
3.4967654318901698e-16
40
0.45656250000010828
210
7.8934983868192931e-19
220
-6.8938505526170134e-18
230
1
100
AcDbArc
50
0
51
6.5319532393807203
0
LINE
5
144
100
AcDbEntity
8
0
100
AcDbLine
10
-2.6684374999997718
20
0.84999999999999598
30
3.4931615565329371e-16
11
-2.6684378607730923
21
0.69324366089410461
31
0
0
SPLINE
5
145
100
AcDbEntity
8
0
100
AcDbSpline
70
0
71
3
72
10
73
6
74
0
42
0.000000001
43
0.0000000001
44
0.0000000001
40
0.093109101090968371
40
0.093109101090968371
40
0.093109101090968371
40
0.093109101090968371
40
0.17566209589222176
40
0.17566209589222176
40
0.26352091743248685
40
0.26352091743248685
40
0.26352091743248685
40
0.26352091743248685
10
-2.6684378605196715
20
0.62792011911478385
30
-1.7483827159451283e-16
10
-2.6644430362269009
20
0.6379777909357639
30
-1.7483827159451283e-16
10
-2.66232464176545
20
0.64868883207230743
30
3.4967654318902565e-16
10
-2.6620535966537733
20
0.67105097609735975
30
0
10
-2.6641672312380913
20
0.68249692704339049
30
0
10
-2.6684133767546845
20
0.69321680360884719
30
-1.7483827159451283e-16
0
CIRCLE
5
146
100
AcDbEntity
8
0
100
AcDbCircle
10
-3.6796418124217625
20
0.86614174167002278
30
0
40
0.039370078740157341
210
1.1102230246251565e-16
220
-0
230
1
0
CIRCLE
5
147
100
AcDbEntity
8
0
100
AcDbCircle
10
-3.6796418124217625
20
0.96456693852041642
30
0
40
0.039370078740157341
210
1.1102230246251565e-16
220
-0
230
1
0
CIRCLE
5
148
100
AcDbEntity
8
0
100
AcDbCircle
10
-3.6796418124217625
20
1.0629921353708101
30
0
40
0.039370078740157341
210
1.1102230246251565e-16
220
-0
230
1
0
ENDSEC
0
SECTION
2
OBJECTS
0
DICTIONARY
5
C
100
AcDbDictionary
3
ACAD_GROUP
350
D
3
ACAD_MLINESTYLE
350
17
0
DICTIONARY
5
D
100
AcDbDictionary
0
DICTIONARY
5
1A
330
C
100
AcDbDictionary
0
DICTIONARY
5
17
100
AcDbDictionary
0
ENDSEC
0
EOF
