0
SECTION
2
HEADER
9
$INSUNITS
70
1
9
$ACADVER
1
AC1014
9
$HANDSEED
5
FFFF
0
ENDSEC
0
SECTION
2
TABLES
0
TABLE
2
VPORT
5
8
100
AcDbSymbolTable
0
ENDTAB
0
TABLE
2
LTYPE
5
5
100
AcDbSymbolTable
0
LTYPE
5
14
100
AcDbSymbolTableRecord
100
AcDbLinetypeTableRecord
2
BYBLOCK
70
0
0
LTYPE
5
15
100
AcDbSymbolTableRecord
100
AcDbLinetypeTableRecord
2
BYLAYER
70
0
0
ENDTAB
0
TABLE
2
LAYER
5
2
100
AcDbSymbolTable
70
2
0
LAYER
5
50
100
AcDbSymbolTableRecord
100
AcDbLayerTableRecord
2
0
70
0
6
CONTINUOUS
0
ENDTAB
0
TABLE
2
STYLE
5
3
100
AcDbSymbolTable
70
1
0
STYLE
5
11
100
AcDbSymbolTableRecord
100
AcDbTextStyleTableRecord
2
STANDARD
70
0
0
ENDTAB
0
TABLE
2
VIEW
5
6
100
AcDbSymbolTable
70
0
0
ENDTAB
0
TABLE
2
UCS
5
7
100
AcDbSymbolTable
70
0
0
ENDTAB
0
TABLE
2
APPID
5
9
100
AcDbSymbolTable
70
2
0
APPID
5
12
100
AcDbSymbolTableRecord
100
AcDbRegAppTableRecord
2
ACAD
70
0
0
ENDTAB
0
TABLE
2
DIMSTYLE
5
A
100
AcDbSymbolTable
70
1
0
ENDTAB
0
TABLE
2
BLOCK_RECORD
5
1
100
AcDbSymbolTable
70
1
0
BLOCK_RECORD
5
1F
100
AcDbSymbolTableRecord
100
AcDbBlockTableRecord
2
*MODEL_SPACE
0
BLOCK_RECORD
5
1B
100
AcDbSymbolTableRecord
100
AcDbBlockTableRecord
2
*PAPER_SPACE
0
ENDTAB
0
ENDSEC
0
SECTION
2
BLOCKS
0
BLOCK
5
20
100
AcDbEntity
100
AcDbBlockBegin
2
*MODEL_SPACE
0
ENDBLK
5
21
100
AcDbEntity
100
AcDbBlockEnd
0
BLOCK
5
1C
100
AcDbEntity
100
AcDbBlockBegin
2
*PAPER_SPACE
0
ENDBLK
5
1D
100
AcDbEntity
100
AcDbBlockEnd
0
ENDSEC
0
SECTION
2
ENTITIES
0
CIRCLE
5
100
100
AcDbEntity
8
0
100
AcDbCircle
10
-3.6796418124217625
20
1.0629921353708101
30
1.9669305554382694e-16
40
0.039370078740157334
210
0
220
-0
230
1
0
CIRCLE
5
101
100
AcDbEntity
8
0
100
AcDbCircle
10
-3.6796418124217625
20
0.96456693852041642
30
1.9669305554382694e-16
40
0.039370078740157334
210
0
220
-0
230
1
0
SPLINE
5
102
100
AcDbEntity
8
0
100
AcDbSpline
70
0
71
3
72
16
73
12
74
0
42
0.000000001
43
0.0000000001
44
0.0000000001
40
0
40
0
40
0
40
0
40
0.019858970391930183
40
0.019858970391930183
40
0.039714151975679873
40
0.039714151975679873
40
0.059561683417450696
40
0.059561683417450696
40
0.074426813416870019
40
0.074426813416870019
40
0.089291645545201775
40
0.089291645545201775
40
0.089291645545201775
40
0.089291645545201775
10
-3.7783115304867017
20
1.475801128499036
30
-1.5298348764519871e-16
10
-3.7757152836344701
20
1.475573986331751
30
1.9669305554382694e-16
10
-3.7731881732324899
20
1.4748419188908564
30
1.9669305554382694e-16
10
-3.7685573935292274
20
1.4724504881993767
30
1.9669305554382694e-16
10
-3.7664978539562455
20
1.4708141314295062
30
1.9669305554382694e-16
10
-3.7631228663976795
20
1.4668446754573985
30
1.9669305554382694e-16
10
-3.7618394045762313
20
1.4645497964860137
30
5.4636959873285255e-16
10
-3.7604273694485695
20
1.4602187579293486
30
5.4636959873285255e-16
10
-3.7600973490107266
20
1.45828553658001
30
1.9669305554382694e-16
10
-3.7600077109018057
20
1.4543850526978894
30
1.9669305554382694e-16
10
-3.7602485639149923
20
1.4524387520792967
30
1.9669305554382694e-16
10
-3.760767420863103
20
1.4505582827293741
30
5.4636959873285255e-16
0
LINE
5
103
100
AcDbEntity
8
0
100
AcDbLine
10
-3.7783115304867017
20
1.475801128499036
30
-1.5298348764519871e-16
11
-3.8074149677437785
21
1.4783473493286685
31
-1.5571533563886299e-16
0
ARC
5
104
100
AcDbEntity
8
0
100
AcDbCircle
10
-3.8074149677437803
20
1.3783473493286693
30
-1.5298348764519854e-16
40
0.099999999999999298
210
1.1102230246251543e-16
220
2.7318479936643017e-17
230
1
100
AcDbArc
50
89.999999999998991
51
180
0
LINE
5
105
100
AcDbEntity
8
0
100
AcDbLine
10
-3.9074149677437791
20
1.3783473493286686
30
-1.4188125739894711e-16
11
-3.9074149677437799
21
0.91637795275590594
31
-1.5298348764519871e-16
0
ARC
5
106
100
AcDbEntity
8
0
100
AcDbCircle
10
-3.6074149677437792
20
0.91637795275590594
30
1.9669305554382694e-16
40
0.30000000000000088
210
-1.165588477296749e-15
220
0
230
1
100
AcDbArc
50
180
51
270
0
LINE
5
107
100
AcDbEntity
8
0
100
AcDbLine
10
-3.6074149677437792
20
0.61637795275590579
30
1.9669305554382694e-16
11
-3.588946017057169
21
0.6163779527559059
31
1.9669305554382694e-16
0
SPLINE
5
108
100
AcDbEntity
8
0
100
AcDbSpline
70
0
71
3
72
10
73
6
74
0
42
0.000000001
43
0.0000000001
44
0.0000000001
40
-0.11504316472609386
40
-0.11504316472609386
40
-0.11504316472609386
40
-0.11504316472609386
40
-0.08787153023152583
40
-0.08787153023152583
40
-0.0007038581980701869
40
-0.0007038581980701869
40
-0.0007038581980701869
40
-0.0007038581980701869
10
-3.5815762506115711
20
0.66016844911689143
30
1.9669305554382694e-16
10
-3.5830253665158653
20
0.65692396683336296
30
-1.5298348764519871e-16
10
-3.584280548554541
20
0.65358960570534352
30
-1.5298348764519871e-16
10
-3.5887087969676466
20
0.63925263430387358
30
-1.5298348764519871e-16
10
-3.5899358401267434
20
0.62777262850136406
30
-1.5298348764519871e-16
10
-3.5889460170571681
20
0.6163779527559059
30
-1.5298348764519871e-16
0
LINE
5
109
100
AcDbEntity
8
0
100
AcDbLine
10
-3.5815762506115711
20
0.66016844911689143
30
1.9669305554382694e-16
11
-3.5815762506116129
21
0.84999999999990494
31
-1.5298348764519625e-16
0
ARC
5
110
100
AcDbEntity
8
0
100
AcDbCircle
10
-3.1250137506114792
20
0.84999999999998832
30
1.9669305554383715e-16
40
0.45656250000007298
210
-2.2363363094021883e-29
220
2.6350852047651958e-29
230
1
100
AcDbArc
50
173.16807978578859
51
180
0
SPLINE
5
111
100
AcDbEntity
8
0
100
AcDbSpline
70
0
71
3
72
12
73
8
74
0
42
0.000000001
43
0.0000000001
44
0.0000000001
40
0.13763184119167851
40
0.13763184119167851
40
0.13763184119167851
40
0.13763184119167851
40
0.17599130429878018
40
0.17599130429878018
40
0.26392846152015875
40
0.26392846152015875
40
0.34774897336672883
40
0.34774897336672883
40
0.34774897336672883
40
0.34774897336672883
10
-3.5620362975478934
20
0.98213860100475625
30
1.9669305554382694e-16
10
-3.5651548214159146
20
0.97821648752968537
30
1.9669305554382694e-16
10
-3.5679424192201656
20
0.97402797307539246
30
5.4636959873285255e-16
10
-3.5759157680062503
20
0.95949767863305058
30
-1.5298348764519871e-16
10
-3.5794382450602451
20
0.94839309132626959
30
1.9669305554382694e-16
10
-3.5819649805956502
20
0.92599523792140059
30
1.9669305554382694e-16
10
-3.5811504662534208
20
0.91493497638417598
30
1.9669305554382694e-16
10
-3.5783343783017498
20
0.90431137094842695
30
1.9669305554382694e-16
0
ARC
5
112
100
AcDbEntity
8
0
100
AcDbCircle
10
-3.1250137506114792
20
0.84999999999998832
30
1.9669305554383715e-16
40
0.45656250000005677
210
-1.143038079580394e-16
220
5.5644503885024322e-18
230
1
100
AcDbArc
50
126.7788229842018
51
163.17672753488975
0
SPLINE
5
113
100
AcDbEntity
8
0
100
AcDbSpline
70
0
71
3
72
14
73
10
74
0
42
0.000000001
43
0.0000000001
44
0.0000000001
40
0.16147935155227941
40
0.16147935155227941
40
0.16147935155227941
40
0.16147935155227941
40
0.17596684609614438
40
0.17596684609614438
40
0.2640354222857062
40
0.2640354222857062
40
0.35206817769486864
40
0.35206817769486864
40
0.36756903407384023
40
0.36756903407384023
40
0.36756903407384023
40
0.36756903407384023
10
-3.3320190539445247
20
1.2569374900378174
30
5.4636959873285255e-16
10
-3.3339058811052764
20
1.2567475034252906
30
-1.5298348764519871e-16
10
-3.3357885641423719
20
1.2564968520449242
30
-1.5298348764519871e-16
10
-3.3490658920253566
20
1.2542924488226646
30
5.4636959873285255e-16
10
-3.3599893925306681
20
1.2501904182901544
30
1.9669305554382694e-16
10
-3.3796431755940191
20
1.2380316534976636
30
5.4636959873285255e-16
10
-3.3881869995753378
20
1.2300924108388813
30
-1.5298348764519871e-16
10
-3.3961604637718712
20
1.2190909140912658
30
1.9669305554382694e-16
10
-3.3972955112434109
20
1.2174054746460894
30
1.9669305554382694e-16
10
-3.3983703206525564
20
1.2156849764779378
30
-1.5298348764519871e-16
0
ARC
5
114
100
AcDbEntity
8
0
100
AcDbCircle
10
-3.1250137506114792
20
0.84999999999998832
30
1.9669305554383715e-16
40
0.45656250000002596
210
-3.6893124603230585e-17
220
-4.9907486871040895e-17
230
1
100
AcDbArc
50
89.999135943203754
51
116.96201569188059
0
ARC
5
115
100
AcDbEntity
8
0
100
AcDbCircle
10
-3.1249999999997642
20
0.84999999999971398
30
1.9669305554382694e-16
40
0.45656250000000065
210
0
220
-0
230
1
100
AcDbArc
50
87.48819396745796
51
90.000861560215711
0
ARC
5
116
100
AcDbEntity
8
0
100
AcDbCircle
10
-3.105648415493635
20
1.2911382522229349
30
1.9669305554330888e-16
40
0.0150000000099585
210
1.6637345041785321e-16
220
-7.2983693539755431e-18
230
1
100
AcDbArc
50
86.964078475199344
51
87.488193967227502
0
ARC
5
117
100
AcDbEntity
8
0
100
AcDbCircle
10
-3.1250137506114792
20
0.84999999999998832
30
1.9669305554383715e-16
40
0.45656250000001675
210
3.7891920458665562e-30
220
2.203975513910862e-29
230
1
100
AcDbArc
50
80.244774455413847
51
87.469250848035713
0
SPLINE
5
118
100
AcDbEntity
8
0
100
AcDbSpline
70
0
71
3
72
12
73
8
74
0
42
0.000000001
43
0.0000000001
44
0.0000000001
40
0.19009990959697498
40
0.19009990959697498
40
0.19009990959697498
40
0.19009990959697498
40
0.26345089855231274
40
0.26345089855231274
40
0.35152372362502915
40
0.35152372362502915
40
0.3884375919755651
40
0.3884375919755651
40
0.3884375919755651
40
0.3884375919755651
10
-2.9746802495003477
20
1.2811022556771374
30
-1.5298348764519871e-16
10
-2.9820769996970471
20
1.2872239332898876
30
-1.5298348764519871e-16
10
-2.9904293393585979
20
1.2921127375816792
30
-3.2782175923971154e-16
10
-3.010203301484867
20
1.2997157076947421
30
3.7153132713833977e-16
10
-3.0216996902878628
20
1.3017177134525599
30
3.7153132713833977e-16
10
-3.0380989442204922
20
1.3013534720449864
30
3.7153132713833977e-16
10
-3.0429142338770689
20
1.3008499977059664
30
-1.5298348764519871e-16
10
-3.0476540796749583
20
1.2999608846542294
30
2.1854783949314103e-17
0
ARC
5
119
100
AcDbEntity
8
0
100
AcDbCircle
10
-3.1250137506114792
20
0.84999999999998832
30
1.9669305554383715e-16
40
0.45656250000000065
210
1.0055753594088372e-29
220
1.9974749125016252e-29
230
1
100
AcDbArc
50
63.278252475860434
51
70.775371472694019
0
ARC
5
120
100
AcDbEntity
8
0
100
AcDbCircle
10
-2.9260802821657963
20
1.2442187048618807
30
1.9669305554369944e-16
40
0.014999999999891957
210
-1.0053643293031962e-16
220
4.7099652841214936e-17
230
1
100
AcDbArc
50
63.22484078984062
51
64.897688372334756
0
ARC
5
121
100
AcDbEntity
8
0
100
AcDbCircle
10
-3.1249999999997642
20
0.84999999999971398
30
1.9669305554382694e-16
40
0.45656250000000864
210
-9.9118625987436347e-17
220
5.0014494163601704e-17
230
1
100
AcDbArc
50
53.424935367953275
51
63.224840789841075
0
LINE
5
122
100
AcDbEntity
8
0
100
AcDbLine
10
-2.8529456244837879
20
1.2166547874618037
30
2.0532065771126122e-16
11
-2.852644062938908
21
1.2164206184746984
31
1.9669305554382694e-16
0
ARC
5
123
100
AcDbEntity
8
0
100
AcDbCircle
10
-3.1250137506114792
20
0.84999999999998832
30
1.9669305554383715e-16
40
0.4565624999999901
210
1.4084435115594238e-29
220
1.7370592115037349e-29
230
1
100
AcDbArc
50
50.964146319465918
51
53.375646974038531
0
LINE
5
124
100
AcDbEntity
8
0
100
AcDbLine
10
-2.8374676846743743
20
1.2046358362748
30
1.9669305554382694e-16
11
-2.8371489668767405
21
1.2043883450906137
31
1.9673574066872794e-16
0
ARC
5
125
100
AcDbEntity
8
0
100
AcDbCircle
10
-3.1249999999997642
20
0.84999999999971398
30
1.9669305554382694e-16
40
0.45656250000001547
210
7.8086674334185715e-17
220
8.0899390273459494e-18
230
1
100
AcDbArc
50
41.114952503698149
51
50.914857925574431
0
ARC
5
126
100
AcDbEntity
8
0
100
AcDbCircle
10
-2.7923304283899602
20
1.1403590837751523
30
3.7153132713846742e-16
40
0.015000000000340909
210
4.7140721394084236e-17
220
1.1482679105010656e-16
230
1
100
AcDbArc
50
38.948356798504086
51
41.114952503656511
0
ARC
5
127
100
AcDbEntity
8
0
100
AcDbCircle
10
-3.1250137506114792
20
0.84999999999998832
30
1.9669305554383715e-16
40
0.45656249999997761
210
1.8615169985956358e-29
220
1.2392910446959535e-29
230
1
100
AcDbArc
50
33.653394978104537
51
41.042652940960139
0
SPLINE
5
128
100
AcDbEntity
8
0
100
AcDbSpline
70
0
71
3
72
12
73
8
74
0
42
0.000000001
43
0.0000000001
44
0.0000000001
40
0.88146057835804181
40
0.88146057835804181
40
0.88146057835804181
40
0.88146057835804181
40
0.96700825884048702
40
0.96700825884048702
40
1.0548794948381168
40
1.0548794948381168
40
1.0725544490869412
40
1.0725544490869412
40
1.0725544490869412
40
1.0725544490869412
10
-2.7095895296495325
20
1.0393991367418713
30
1.9669305554382694e-16
10
-2.7105343387453509
20
1.0505806479991713
30
1.9669305554382694e-16
10
-2.7135969075322834
20
1.0614836845583147
30
1.9669305554382694e-16
10
-2.7237680661605683
20
1.0818429950293906
30
1.9669305554382694e-16
10
-2.7308858662983817
20
1.0910550322706343
30
2.1854783949314103e-17
10
-2.7413118439045312
20
1.1001745102375642
30
2.1854783949314103e-17
10
-2.743114339996525
20
1.10163031530558
30
2.1854783949314103e-17
10
-2.7449687681694512
20
1.1030121098423145
30
2.1854783949314103e-17
0
ARC
5
129
100
AcDbEntity
8
0
100
AcDbCircle
10
-3.1250137506114792
20
0.84999999999998832
30
1.9669305554383715e-16
40
0.45656249999996867
210
1.1253275417260876e-16
220
2.0801511006859269e-17
230
1
100
AcDbArc
50
16.931243624426514
51
24.509068423559761
0
ARC
5
130
100
AcDbEntity
8
0
100
AcDbCircle
10
-2.702398717602307
20
0.97800624016930238
30
1.9669305554384957e-16
40
0.014999999999943062
210
6.1563961870822585e-17
220
-7.8573842808545331e-18
230
1
100
AcDbArc
50
16.851599326100139
51
19.291735680928486
0
ARC
5
131
100
AcDbEntity
8
0
100
AcDbCircle
10
-3.1249999999997642
20
0.84999999999971398
30
1.9669305554382694e-16
40
0.45656250000004744
210
1.0625487308222108e-16
220
3.2184679435412917e-17
230
1
100
AcDbArc
50
0
51
16.851599326096693
0
LINE
5
132
100
AcDbEntity
8
0
100
AcDbLine
10
-2.6684374999997167
20
0.85000000000002418
30
1.4818106505221034e-16
11
-2.6684374999997189
21
0.82218291892535478
31
1.9669305554382709e-16
0
ARC
5
133
100
AcDbEntity
8
0
100
AcDbCircle
10
-2.6834374999997466
20
0.82218291892535322
30
-1.5298348764519871e-16
40
0.015000000000028329
210
0
220
0
230
1
100
AcDbArc
50
-2.4535007413976242
51
0
0
LINE
5
134
100
AcDbEntity
8
0
100
AcDbLine
10
-2.6684512506115041
20
0.82154079021998938
30
-1.5298348764519871e-16
11
-2.6684512506115188
21
0.76918993177273109
31
1.9669305554382568e-16
0
SPLINE
5
135
100
AcDbEntity
8
0
100
AcDbSpline
70
0
71
3
72
12
73
8
74
0
42
0.000000001
43
0.0000000001
44
0.0000000001
40
0.21048880784023533
40
0.21048880784023533
40
0.21048880784023533
40
0.21048880784023533
40
0.26365305690255358
40
0.26365305690255358
40
0.35148878637744557
40
0.35148878637744557
40
0.38123594210153949
40
0.38123594210153949
40
0.38123594210153949
40
0.38123594210153949
10
-2.6684512506115525
20
0.70376481210489039
30
2.1854783949314103e-17
10
-2.6658848453047237
20
0.71021855940627221
30
-1.5298348764519871e-16
10
-2.6640812263895497
20
0.71696676548349247
30
2.1854783949314103e-17
10
-2.6614476264530604
20
0.73528196239270771
30
1.9669305554382694e-16
10
-2.6620513222011937
20
0.74690231118666017
30
2.1854783949314103e-17
10
-2.6658159580711045
20
0.76186674235138241
30
1.9669305554382694e-16
10
-2.6670154942094029
20
0.76557738823950972
30
1.9669305554382694e-16
10
-2.6684512506115272
20
0.76918993177273098
30
1.9669305554382694e-16
0
LINE
5
136
100
AcDbEntity
8
0
100
AcDbLine
10
-2.6684512506115525
20
0.70376481210489039
30
2.1854783949314103e-17
11
-2.6684512506115237
21
0.65082509305232905
31
2.1854783949314103e-17
0
ARC
5
137
100
AcDbEntity
8
0
100
AcDbCircle
10
-2.6834374999990067
20
0.65018296434685063
30
2.1854783949394678e-17
40
0.014999999999275128
210
-5.5460263742523584e-17
220
-2.3763535786484357e-18
230
1
100
AcDbArc
50
0
51
2.4535007419591817
0
LINE
5
138
100
AcDbEntity
8
0
100
AcDbLine
10
-2.6684374999997318
20
0.65018296434683687
30
2.2686687905492298e-17
11
-2.6684374999997336
21
0.6163779527559059
31
-1.5298348764519856e-16
0
LINE
5
139
100
AcDbEntity
8
0
100
AcDbLine
10
-2.6684374999997336
20
0.6163779527559059
30
-1.5298348764519856e-16
11
-2.540964566928996
21
0.61637795275590579
31
-1.7483827159451283e-16
0
LINE
5
140
100
AcDbEntity
8
0
100
AcDbLine
10
-2.540964566928996
20
0.61637795275590579
30
-1.7483827159451283e-16
11
-2.5409645669289955
21
1.0609010373179335
31
1.9669305554382697e-16
0
ARC
5
141
100
AcDbEntity
8
0
100
AcDbCircle
10
-2.875610236220334
20
1.0609010373179339
30
2.1854783949314103e-17
40
0.33464566929133843
210
-5.2245789394125045e-16
220
5.4592450188305372e-31
230
1
100
AcDbArc
50
0
51
85.000000000000114
0
LINE
5
142
100
AcDbEntity
8
0
100
AcDbLine
10
-2.8464439443559608
20
1.3942732788053289
30
2.1854783949314103e-17
11
-3.4940599256972562
21
1.4509323354909085
31
3.7153132713833977e-16
0
SPLINE
5
143
100
AcDbEntity
8
0
100
AcDbSpline
70
0
71
3
72
16
73
12
74
0
42
0.000000001
43
0.0000000001
44
0.0000000001
40
0
40
0
40
0
40
0
40
0.019836595406649879
40
0.019836595406649879
40
0.039674583657573356
40
0.039674583657573356
40
0.059520356510799385
40
0.059520356510799385
40
0.074403421731384756
40
0.074403421731384756
40
0.089287467279086138
40
0.089287467279086138
40
0.089287467279086138
40
0.089287467279086138
10
-3.5157228157143705
20
1.4291221255270092
30
1.9669305554382694e-16
10
-3.5159686542356772
20
1.4317137192657685
30
1.9669305554382694e-16
10
-3.5157059394736798
20
1.4343284870118285
30
1.9669305554382694e-16
10
-3.5141929128461511
20
1.4393104387098046
30
5.4636959873285255e-16
10
-3.5129570373887997
20
1.4416298539463401
30
1.9669305554382694e-16
10
-3.5096652820175511
20
1.4456654786731777
30
1.9669305554382694e-16
10
-3.5076406001293945
20
1.4473428162930202
30
-1.5298348764519871e-16
10
-3.5036348290762267
20
1.4495167430170117
30
1.9669305554382694e-16
10
-3.5017909468037347
20
1.4501920400578934
30
-1.5298348764519871e-16
10
-3.4979662050566929
20
1.4509871039207811
30
1.9669305554382694e-16
10
-3.496005811018462
20
1.4511025783970355
30
-1.5298348764519871e-16
10
-3.4940599256972562
20
1.4509323354909085
30
-1.5298348764519871e-16
0
SPLINE
5
144
100
AcDbEntity
8
0
100
AcDbSpline
70
0
71
3
72
16
73
12
74
0
42
0.000000001
43
0.0000000001
44
0.0000000001
40
-0.96952789655527283
40
-0.96952789655527283
40
-0.96952789655527283
40
-0.96952789655527283
40
-0.94060699340869558
40
-0.94060699340869558
40
-0.82307198045142216
40
-0.82307198045142216
40
-0.7055102339811441
40
-0.7055102339811441
40
-0.5879173679155929
40
-0.5879173679155929
40
-0.54254938141374487
40
-0.54254938141374487
40
-0.54254938141374487
40
-0.54254938141374487
10
-3.5157228157143696
20
1.4291221255270092
30
1.9669305554382694e-16
10
-3.5153400519167124
20
1.4250870855497151
30
5.4636959873285255e-16
10
-3.5151644276707632
20
1.4211182287593933
30
1.9669305554382694e-16
10
-3.5151644276707632
20
1.4018982922628249
30
1.9669305554382694e-16
10
-3.5187766005716741
20
1.3837447257247875
30
1.9669305554382694e-16
10
-3.5305860087155945
20
1.3552417367529368
30
-1.5298348764519871e-16
10
-3.5408740258656666
20
1.3398497797099544
30
1.9669305554382694e-16
10
-3.5626983926095761
20
1.318031254154107
30
-1.5298348764519871e-16
10
-3.578097561567215
20
1.3077452093070252
30
1.9669305554382694e-16
10
-3.5978563210053567
20
1.2995629237025887
30
-1.5298348764519871e-16
10
-3.6039154362822017
20
1.2975315463219752
30
5.4636959873285255e-16
10
-3.6101898555860901
20
1.2959801365088461
30
1.9669305554382694e-16
0
LINE
5
145
100
AcDbEntity
8
0
100
AcDbLine
10
-3.6101898555860901
20
1.2959801365088459
30
1.9669305554382736e-16
11
-3.6101898546486679
21
1.1673259812757766
31
-1.5298348764519871e-16
0
LINE
5
146
100
AcDbEntity
8
0
100
AcDbLine
10
-3.6101898546486679
20
1.1673259812757766
30
-1.5298348764519871e-16
11
-3.670189854648668
21
1.1673259812757766
31
-1.4751979165787019e-16
0
LINE
5
147
100
AcDbEntity
8
0
100
AcDbLine
10
-3.670189854648668
20
1.1673259812757766
30
-1.4751979165787019e-16
11
-3.670189854648668
21
1.2959661514963614
31
-1.5298348764519871e-16
0
SPLINE
5
148
100
AcDbEntity
8
0
100
AcDbSpline
70
0
71
3
72
17
73
13
74
0
42
0.000000001
43
0.0000000001
44
0.0000000001
40
-0.3981886661704313
40
-0.3981886661704313
40
-0.3981886661704313
40
-0.3981886661704313
40
-0.35268552112134999
40
-0.35268552112134999
40
-0.23509637270256278
40
-0.23509637270256278
40
-0.1175365079294215
40
-0.1175365079294215
40
0
40
0
40
0
40
0.080023645008958963
40
0.080023645008958963
40
0.080023645008958963
40
0.080023645008958963
10
-3.6701898546487177
20
1.2959661514963736
30
1.9669305554382694e-16
10
-3.6764842508004141
20
1.2975194086580992
30
5.4636959873285255e-16
10
-3.6825631526484961
20
1.2995560354163949
30
1.9669305554382694e-16
10
-3.702337797268036
20
1.3077450458471094
30
5.4636959873285255e-16
10
-3.7177363605223577
20
1.3180309434557165
30
1.9669305554382694e-16
10
-3.7395598889444499
20
1.3398492682187577
30
1.9669305554382694e-16
10
-3.7498474478893877
20
1.3552411750928151
30
-1.5298348764519871e-16
10
-3.761656480433762
20
1.3837442647461928
30
1.9669305554382694e-16
10
-3.7652685289756174
20
1.4018980960722542
30
-1.5298348764519871e-16
10
-3.7652685289756174
20
1.4173228346456692
30
-1.5298348764519871e-16
10
-3.7652685289756174
20
1.4278246253292597
30
-1.5298348764519871e-16
10
-3.7637795729912868
20
1.4396414784445315
30
1.9669305554382694e-16
10
-3.760767420863103
20
1.4505582827293741
30
1.9669305554382694e-16
0
ENDSEC
0
SECTION
2
OBJECTS
0
DICTIONARY
5
C
100
AcDbDictionary
3
ACAD_GROUP
350
D
3
ACAD_MLINESTYLE
350
17
0
DICTIONARY
5
D
100
AcDbDictionary
0
DICTIONARY
5
1A
330
C
100
AcDbDictionary
0
DICTIONARY
5
17
100
AcDbDictionary
0
ENDSEC
0
EOF
