0
SECTION
2
HEADER
9
$INSUNITS
70
1
9
$ACADVER
1
AC1014
9
$HANDSEED
5
FFFF
0
ENDSEC
0
SECTION
2
TABLES
0
TABLE
2
VPORT
5
8
100
AcDbSymbolTable
0
ENDTAB
0
TABLE
2
LTYPE
5
5
100
AcDbSymbolTable
0
LTYPE
5
14
100
AcDbSymbolTableRecord
100
AcDbLinetypeTableRecord
2
BYBLOCK
70
0
0
LTYPE
5
15
100
AcDbSymbolTableRecord
100
AcDbLinetypeTableRecord
2
BYLAYER
70
0
0
ENDTAB
0
TABLE
2
LAYER
5
2
100
AcDbSymbolTable
70
2
0
LAYER
5
50
100
AcDbSymbolTableRecord
100
AcDbLayerTableRecord
2
0
70
0
6
CONTINUOUS
0
ENDTAB
0
TABLE
2
STYLE
5
3
100
AcDbSymbolTable
70
1
0
STYLE
5
11
100
AcDbSymbolTableRecord
100
AcDbTextStyleTableRecord
2
STANDARD
70
0
0
ENDTAB
0
TABLE
2
VIEW
5
6
100
AcDbSymbolTable
70
0
0
ENDTAB
0
TABLE
2
UCS
5
7
100
AcDbSymbolTable
70
0
0
ENDTAB
0
TABLE
2
APPID
5
9
100
AcDbSymbolTable
70
2
0
APPID
5
12
100
AcDbSymbolTableRecord
100
AcDbRegAppTableRecord
2
ACAD
70
0
0
ENDTAB
0
TABLE
2
DIMSTYLE
5
A
100
AcDbSymbolTable
70
1
0
ENDTAB
0
TABLE
2
BLOCK_RECORD
5
1
100
AcDbSymbolTable
70
1
0
BLOCK_RECORD
5
1F
100
AcDbSymbolTableRecord
100
AcDbBlockTableRecord
2
*MODEL_SPACE
0
BLOCK_RECORD
5
1B
100
AcDbSymbolTableRecord
100
AcDbBlockTableRecord
2
*PAPER_SPACE
0
ENDTAB
0
ENDSEC
0
SECTION
2
BLOCKS
0
BLOCK
5
20
100
AcDbEntity
100
AcDbBlockBegin
2
*MODEL_SPACE
0
ENDBLK
5
21
100
AcDbEntity
100
AcDbBlockEnd
0
BLOCK
5
1C
100
AcDbEntity
100
AcDbBlockBegin
2
*PAPER_SPACE
0
ENDBLK
5
1D
100
AcDbEntity
100
AcDbBlockEnd
0
ENDSEC
0
SECTION
2
ENTITIES
0
SPLINE
5
100
100
AcDbEntity
8
0
100
AcDbSpline
70
0
71
3
72
16
73
12
74
0
42
0.000000001
43
0.0000000001
44
0.0000000001
40
0
40
0
40
0
40
0
40
0.019858835101523566
40
0.019858835101523566
40
0.039713917471630569
40
0.039713917471630569
40
0.059561422456749925
40
0.059561422456749925
40
0.074426817012752056
40
0.074426817012752056
40
0.089291916550840511
40
0.089291916550840511
40
0.089291916550840511
40
0.089291916550840511
10
-3.7783250567804001
20
1.4758023118963945
30
1.9669305554382694e-16
10
-3.7757288276152532
20
1.475575171276529
30
1.9669305554382694e-16
10
-3.7732017349143465
20
1.4748431087478107
30
-1.5298348764519871e-16
10
-3.76857098216353
20
1.472451692695173
30
-1.5298348764519871e-16
10
-3.7665114529463257
20
1.4708153441493559
30
1.9669305554382694e-16
10
-3.7631364735579398
20
1.4668459023810074
30
5.4636959873285255e-16
10
-3.7618530121420113
20
1.4645510266855277
30
-1.5298348764519871e-16
10
-3.7604409624512076
20
1.4602199594137257
30
-1.5298348764519871e-16
10
-3.7601109383864473
20
1.4582867024878969
30
1.9669305554382694e-16
10
-3.7600213116436887
20
1.4543861479821283
30
5.4636959873285255e-16
10
-3.7602621796986835
20
1.4524398128748468
30
-1.5298348764519871e-16
10
-3.7607810603551921
20
1.4505593133895598
30
1.9669305554382694e-16
0
LINE
5
101
100
AcDbEntity
8
0
100
AcDbLine
10
-3.7783250567804001
20
1.4758023118963945
30
1.9669305554382694e-16
11
-3.8074149677437794
21
1.4783473493286685
31
5.4636959873285255e-16
0
ARC
5
102
100
AcDbEntity
8
0
100
AcDbCircle
10
-3.8074149677437803
20
1.3783473493286693
30
-1.5298348764519871e-16
40
0.099999999999999298
210
-4.8909473942651307e-29
220
-6.9935308637805627e-15
230
1
100
AcDbArc
50
89.999999999999503
51
180
0
LINE
5
103
100
AcDbEntity
8
0
100
AcDbLine
10
-3.9074149677437791
20
1.3783473493286686
30
-1.5298348764519871e-16
11
-3.9074149677437799
21
0.91637795275590594
31
-1.5298348764519871e-16
0
ARC
5
104
100
AcDbEntity
8
0
100
AcDbCircle
10
-3.6074149677437792
20
0.91637795275590594
30
1.9669305554382694e-16
40
0.30000000000000088
210
-1.165588477296749e-15
220
0
230
1
100
AcDbArc
50
180
51
270
0
LINE
5
105
100
AcDbEntity
8
0
100
AcDbLine
10
-3.6074149677437792
20
0.61637795275590579
30
1.9669305554382694e-16
11
-3.5815758898384602
21
0.6163779527559059
31
1.9396120755016266e-16
0
LINE
5
106
100
AcDbEntity
8
0
100
AcDbLine
10
-3.5815758898384602
20
0.6163779527559059
30
1.9396120755016266e-16
11
-3.5815758898384855
21
0.63447546365484797
31
-1.5298348764519871e-16
0
LINE
5
107
100
AcDbEntity
8
0
100
AcDbLine
10
-3.5815624999999334
20
0.6344754636435318
30
1.9669305554382694e-16
11
-3.5815624999999285
21
0.76599173271951693
31
1.9669305554382662e-16
0
LINE
5
108
100
AcDbEntity
8
0
100
AcDbLine
10
-3.5815758898385113
20
0.76599173270820065
30
-1.5298348764519871e-16
11
-3.581575889838521
21
0.81555251849526977
31
-1.5298348764519809e-16
0
SPLINE
5
109
100
AcDbEntity
8
0
100
AcDbSpline
70
0
71
3
72
12
73
8
74
0
42
0.000000001
43
0.0000000001
44
0.0000000001
40
-0.33372229729881936
40
-0.33372229729881936
40
-0.33372229729881936
40
-0.33372229729881936
40
-0.2635995826113437
40
-0.2635995826113437
40
-0.17574128674599743
40
-0.17574128674599743
40
-0.13270594755873963
40
-0.13270594755873963
40
-0.13270594755873963
40
-0.13270594755873963
10
-3.5796557739656918
20
0.89182844679580053
30
-1.5298348764519871e-16
10
-3.5838140486649497
20
0.88365041737925898
30
1.9669305554382694e-16
10
-3.5866838583510696
20
0.87486303708432844
30
-5.0266003083422441e-16
10
-3.5899849494231479
20
0.85439510862768109
30
1.9669305554382694e-16
10
-3.5895807315524855
20
0.84276279376090635
30
1.9669305554382694e-16
10
-3.5856737515549226
20
0.82603546712017428
30
1.9669305554382694e-16
10
-3.58386905343046
20
0.82068457577507747
30
1.9669305554382694e-16
10
-3.5815758898385366
20
0.81555251849526977
30
-1.5298348764519871e-16
0
ARC
5
110
100
AcDbEntity
8
0
100
AcDbCircle
10
-3.1250133898383941
20
0.84999999999998854
30
2.1854783949323489e-17
40
0.45656250000007259
210
-5.5277693944275183e-17
220
5.0857116733228085e-18
230
1
100
AcDbArc
50
167.56427223126857
51
174.74341667222924
0
ARC
5
111
100
AcDbEntity
8
0
100
AcDbCircle
10
-3.1249999999998308
20
0.84999999999985931
30
1.966930555438265e-16
40
0.45656250000009579
210
-5.9768339953401655e-18
220
-2.7104417225740968e-17
230
1
100
AcDbArc
50
145.45474579714281
51
167.56463408337908
0
ARC
5
112
100
AcDbEntity
8
0
100
AcDbCircle
10
-3.1250133898383941
20
0.84999999999998854
30
2.1854783949323489e-17
40
0.45656250000006315
210
-7.7201568227657616e-17
220
-1.4244075443150968e-17
230
1
100
AcDbArc
50
138.39049235492527
51
145.45379292435572
0
SPLINE
5
113
100
AcDbEntity
8
0
100
AcDbSpline
70
0
71
3
72
14
73
10
74
0
42
0.000000001
43
0.0000000001
44
0.0000000001
40
0.15416654326445281
40
0.15416654326445281
40
0.15416654326445281
40
0.15416654326445281
40
0.17602074227956394
40
0.17602074227956394
40
0.26406433476444285
40
0.26406433476444285
40
0.352048714525386
40
0.352048714525386
40
0.36172020460785703
40
0.36172020460785703
40
0.36172020460785703
40
0.36172020460785703
10
-3.4092887426253586
20
1.2072629846543406
30
-1.5298348764519871e-16
10
-3.4120198788740281
20
1.2064209232147622
30
-5.0266003083422441e-16
10
-3.4147135060867164
20
1.2054459588349884
30
1.9669305554382694e-16
10
-3.4280206961455928
20
1.199884878513017
30
1.9669305554382694e-16
10
-3.4377098474007037
20
1.1933898186991849
30
5.4636959873285255e-16
10
-3.4540449657264856
20
1.1770554382836669
30
1.9669305554382694e-16
10
-3.4605369910976576
20
1.1673743074758369
30
1.9669305554382694e-16
10
-3.4654781660013683
20
1.1555496015150786
30
-1.5298348764519871e-16
10
-3.4659418377487525
20
1.1543692442058617
30
1.9669305554382694e-16
10
-3.4663796505537063
20
1.1531804618565202
30
-1.5298348764519871e-16
0
ARC
5
114
100
AcDbEntity
8
0
100
AcDbCircle
10
-3.1250133898383941
20
0.84999999999998854
30
2.1854783949323489e-17
40
0.45656250000005233
210
4.3437819729986694e-17
220
3.4563618562372518e-17
230
1
100
AcDbArc
50
121.18995516234479
51
128.50938352642331
0
ARC
5
115
100
AcDbEntity
8
0
100
AcDbCircle
10
-3.1249999999998308
20
0.84999999999985931
30
1.966930555438265e-16
40
0.45656250000009196
210
7.6235716452429513e-17
220
-1.8737432028533512e-17
230
1
100
AcDbArc
50
99.0815043333657
51
121.19139261958728
0
ARC
5
116
100
AcDbEntity
8
0
100
AcDbCircle
10
-3.1250133898383941
20
0.84999999999998854
30
2.1854783949323489e-17
40
0.45656250000002768
210
-1.1182118789764907e-16
220
-3.8166183559917812e-18
230
1
100
AcDbArc
50
91.889366288572646
51
99.079845046890966
0
SPLINE
5
117
100
AcDbEntity
8
0
100
AcDbSpline
70
0
71
3
72
12
73
8
74
0
42
0.000000001
43
0.0000000001
44
0.0000000001
40
0.18349250652294125
40
0.18349250652294125
40
0.18349250652294125
40
0.18349250652294125
40
0.26364538052267428
40
0.26364538052267428
40
0.35175226853411878
40
0.35175226853411878
40
0.38394112400168889
40
0.38394112400168889
40
0.38394112400168889
40
0.38394112400168889
10
-3.0640383040700621
20
1.3024724912321046
30
-1.5298348764519871e-16
10
-3.0732876660676172
20
1.3074486299597852
30
1.9669305554382694e-16
10
-3.0833555480955472
20
1.3107475656918903
30
3.7153132713833977e-16
10
-3.1052240624479954
20
1.3138132887698899
30
-1.5298348764519871e-16
10
-3.1168800439586248
20
1.3131665896513502
30
1.9669305554382694e-16
10
-3.1321760566958381
20
1.3092578816416092
30
2.1854783949314103e-17
10
-3.1361800610354607
20
1.30792346962468
30
2.1854783949314103e-17
10
-3.1400661123669775
20
1.3063142907588239
30
1.9669305554382694e-16
0
ARC
5
118
100
AcDbEntity
8
0
100
AcDbCircle
10
-3.1250133898383941
20
0.84999999999998854
30
2.1854783949323489e-17
40
0.45656250000001153
210
1.0817432109664171e-16
220
-2.8580778397334379e-17
230
1
100
AcDbArc
50
74.81652947081821
51
82.325070846796734
0
ARC
5
119
100
AcDbEntity
8
0
100
AcDbCircle
10
-3.1249999999998308
20
0.84999999999985931
30
1.966930555438265e-16
40
0.45656250000008564
210
-1.0714756936197962e-16
220
2.9074903678225702e-17
230
1
100
AcDbArc
50
65.018245733902489
51
74.818151155800464
0
ARC
5
120
100
AcDbEntity
8
0
100
AcDbCircle
10
-3.1250133898383941
20
0.84999999999998854
30
2.1854783949323489e-17
40
0.45656250000000015
210
-5.0317033640458117e-17
220
2.3445341469986265e-17
230
1
100
AcDbArc
50
62.506677719357889
51
65.016722619469306
0
ARC
5
121
100
AcDbEntity
8
0
100
AcDbCircle
10
-3.1249999999998308
20
0.84999999999985931
30
1.966930555438265e-16
40
0.45656250000008319
210
-5.6669721075501843e-31
220
-7.4411951849294336e-31
230
1
100
AcDbArc
50
52.708281522631729
51
62.508168291524107
0
ARC
5
122
100
AcDbEntity
8
0
100
AcDbCircle
10
-3.1250133898383941
20
0.84999999999998854
30
2.1854783949323489e-17
40
0.45656249999998555
210
3.3633761205147148e-17
220
4.4161725716023969e-17
230
1
100
AcDbArc
50
45.297314276346079
51
52.706944731545974
0
SPLINE
5
123
100
AcDbEntity
8
0
100
AcDbSpline
70
0
71
3
72
12
73
8
74
0
42
0.000000001
43
0.0000000001
44
0.0000000001
40
0.92663723556557853
40
0.92663723556557853
40
0.92663723556557853
40
0.92663723556557853
40
0.96704211631805692
40
0.96704211631805692
40
1.0548908495747109
40
1.0548908495747109
40
1.1191784190819982
40
1.1191784190819982
40
1.1191784190819982
40
1.1191784190819982
10
-2.7560647111253846
20
1.11893528753612
30
1.9669305554382694e-16
10
-2.7575439094099816
20
1.1240014597524848
30
2.1854783949314103e-17
10
-2.7594764355165737
20
1.1289371813846329
30
2.1854783949314103e-17
10
-2.7669952983418722
20
1.1439956705212699
30
2.1854783949314103e-17
10
-2.774109036604973
20
1.1532068823297765
30
2.1854783949314103e-17
10
-2.7891336100239803
20
1.1663559294142443
30
2.1854783949314103e-17
10
-2.7962308060859908
20
1.1709683841209948
30
3.7153132713833977e-16
10
-2.8038545341994627
20
1.1745093309150103
30
2.1854783949314103e-17
0
ARC
5
124
100
AcDbEntity
8
0
100
AcDbCircle
10
-3.1250133898383941
20
0.84999999999998854
30
2.1854783949323489e-17
40
0.45656249999997461
210
4.4858624833672929e-17
220
3.2698496739974721e-17
230
1
100
AcDbArc
50
28.444090837166819
51
36.08917919407704
0
ARC
5
125
100
AcDbEntity
8
0
100
AcDbCircle
10
-3.1249999999998308
20
0.84999999999985931
30
1.966930555438265e-16
40
0.45656250000007664
210
-1.2405990515029701e-16
220
-4.0717918903204685e-18
230
1
100
AcDbArc
50
18.766794100157195
51
28.444891185827554
0
LINE
5
126
100
AcDbEntity
8
0
100
AcDbLine
10
-2.6927102476718514
20
0.99688392164730866
30
2.509209619760636e-16
11
-2.6865115360079486
21
0.97786877048546417
31
-1.5298348764519871e-16
0
LINE
5
127
100
AcDbEntity
8
0
100
AcDbLine
10
-2.6865115360079486
20
0.97786877048546417
30
-1.5298348764519871e-16
11
-2.6866919662212037
21
0.97780995239572455
31
-3.278110879584863e-16
0
ARC
5
128
100
AcDbEntity
8
0
100
AcDbCircle
10
-3.1249999999998308
20
0.84999999999985931
30
1.966930555438265e-16
40
0.45656250000007531
210
1.0658336393793598e-16
220
3.1079545938639337e-17
230
1
100
AcDbArc
50
6.5282554048090091
51
16.256603642858515
0
ARC
5
129
100
AcDbEntity
8
0
100
AcDbCircle
10
-3.1250133898383941
20
0.84999999999998854
30
2.1854783949323489e-17
40
0.4565624999999649
210
5.5940114828464385e-17
220
-5.8284870293461896e-19
230
1
100
AcDbArc
50
0
51
6.5280643669107423
0
LINE
5
130
100
AcDbEntity
8
0
100
AcDbLine
10
-2.6684508898384292
20
0.84999999999994569
30
-3.6853747270453379e-18
11
-2.6684508898384163
21
0.84507088793708229
31
2.1854842900371395e-17
0
SPLINE
5
131
100
AcDbEntity
8
0
100
AcDbSpline
70
0
71
3
72
12
73
8
74
0
42
0.000000001
43
0.0000000001
44
0.0000000001
40
0.21048028064013541
40
0.21048028064013541
40
0.21048028064013541
40
0.21048028064013541
40
0.26365276220061507
40
0.26365276220061507
40
0.35148882634574713
40
0.35148882634574713
40
0.38124268954538887
40
0.38124268954538887
40
0.38124268954538887
40
0.38124268954538887
10
-2.6684508898384123
20
0.77964018336528451
30
1.9669305554382694e-16
10
-2.6658839220582102
20
0.78609486875332535
30
1.9669305554382694e-16
10
-2.6640798755763009
20
0.79284408494114089
30
-1.5298348764519871e-16
10
-2.6614461713180551
20
0.81116040500683961
30
2.1854783949314103e-17
10
-2.6620499044291153
20
0.82278080013629418
30
1.9669305554382694e-16
10
-2.6658148166456299
20
0.83774611621859185
30
1.9669305554382694e-16
10
-2.6670147010038132
20
0.84145757449601088
30
2.1854783949314103e-17
10
-2.6684508898384118
20
0.84507088793708229
30
2.1854783949314103e-17
0
LINE
5
132
100
AcDbEntity
8
0
100
AcDbLine
10
-2.6684508898384123
20
0.77964018336528451
30
1.9669305554382694e-16
11
-2.66845088983843
21
0.72606100325624068
31
2.1854783949314103e-17
0
LINE
5
133
100
AcDbEntity
8
0
100
AcDbLine
10
-2.6684374999997598
20
0.72606100325624068
30
1.9669305554382694e-16
11
-2.668437499999762
21
0.6163779527559059
31
1.9669305554382709e-16
0
LINE
5
134
100
AcDbEntity
8
0
100
AcDbLine
10
-2.668437499999762
20
0.6163779527559059
30
1.9669305554382709e-16
11
-2.540964566928996
21
0.61637795275590579
31
2.1854783949314103e-17
0
LINE
5
135
100
AcDbEntity
8
0
100
AcDbLine
10
-2.540964566928996
20
0.61637795275590579
30
2.1854783949314103e-17
11
-2.5409645669289955
21
1.0609010373179337
31
1.9669305554382697e-16
0
ARC
5
136
100
AcDbEntity
8
0
100
AcDbCircle
10
-2.8756102362203344
20
1.0609010373179333
30
2.1854783949314103e-17
40
0.33464566929133877
210
-5.2245789394124996e-16
220
-8.1888675282457896e-31
230
1
100
AcDbArc
50
0
51
85.000000000000043
0
LINE
5
137
100
AcDbEntity
8
0
100
AcDbLine
10
-2.8464439443559608
20
1.3942732788053289
30
2.1854783949314103e-17
11
-3.494075030274451
21
1.4509336569701803
31
3.7153132713833977e-16
0
SPLINE
5
138
100
AcDbEntity
8
0
100
AcDbSpline
70
0
71
3
72
16
73
12
74
0
42
0.000000001
43
0.0000000001
44
0.0000000001
40
0
40
0
40
0
40
0
40
0.019836672831662648
40
0.019836672831662648
40
0.039674725114700438
40
0.039674725114700438
40
0.05952048796557155
40
0.05952048796557155
40
0.074403647473506973
40
0.074403647473506973
40
0.089287778016340413
40
0.089287778016340413
40
0.089287778016340413
40
0.089287778016340413
10
-3.5157378169229481
20
1.4291232518662269
30
1.9669305554382694e-16
10
-3.5159836788386989
20
1.4317148535920676
30
5.4636959873285255e-16
10
-3.5157209857544025
20
1.4343296344515561
30
1.9669305554382694e-16
10
-3.5142079972311895
20
1.4393116171124725
30
-1.5298348764519871e-16
10
-3.5129721381184451
20
1.4416310512194574
30
1.9669305554382694e-16
10
-3.5096804120574014
20
1.4456667086553912
30
1.9669305554382694e-16
10
-3.5076557454501378
20
1.4473440625497977
30
-1.5298348764519871e-16
10
-3.5036499818683948
20
1.4495180250716162
30
1.9669305554382694e-16
10
-3.5018060921579193
20
1.4501933375447538
30
1.9669305554382694e-16
10
-3.4979813311474182
20
1.4509884215729281
30
1.9669305554382694e-16
10
-3.4960209264097744
20
1.45110390082242
30
-1.5298348764519871e-16
10
-3.494075030274451
20
1.4509336569701803
30
-1.5298348764519871e-16
0
SPLINE
5
139
100
AcDbEntity
8
0
100
AcDbSpline
70
0
71
3
72
16
73
12
74
0
42
0.000000001
43
0.0000000001
44
0.0000000001
40
-0.96952872683783597
40
-0.96952872683783597
40
-0.96952872683783597
40
-0.96952872683783597
40
-0.94060513270280466
40
-0.94060513270280466
40
-0.82306996396276899
40
-0.82306996396276899
40
-0.70550831577886419
40
-0.70550831577886419
40
-0.58791584380303674
40
-0.58791584380303674
40
-0.54258399254686251
40
-0.54258399254686251
40
-0.54258399254686251
40
-0.54258399254686251
10
-3.5157378169229481
20
1.4291232518662269
30
1.9669305554382694e-16
10
-3.5153549810827212
20
1.4250878240073994
30
-1.5298348764519871e-16
10
-3.5151793243961134
20
1.4211185819074843
30
1.9669305554382694e-16
10
-3.5151793243961134
20
1.4018982718188928
30
-1.5298348764519871e-16
10
-3.5187914910766516
20
1.3837446790294772
30
-1.5298348764519871e-16
10
-3.5306008770952899
20
1.3552416727231971
30
5.4636959873285255e-16
10
-3.5408888630422304
20
1.3398497134413552
30
1.9669305554382694e-16
10
-3.562713156337451
20
1.3180312058106518
30
-5.0266003083422441e-16
10
-3.5781122589815775
20
1.3077451734187686
30
1.9669305554382694e-16
10
-3.5978665823726401
20
1.2995647052468484
30
1.9669305554382694e-16
10
-3.6039204125777586
20
1.2975347238717378
30
1.9669305554382694e-16
10
-3.6101894944655863
20
1.2959838131856722
30
-1.5298348764519871e-16
0
LINE
5
140
100
AcDbEntity
8
0
100
AcDbLine
10
-3.6101894944655863
20
1.2959838131856722
30
-1.5298348764519866e-16
11
-3.6101894938755841
21
1.1673259812757766
31
1.9669305554382694e-16
0
LINE
5
141
100
AcDbEntity
8
0
100
AcDbLine
10
-3.6101894938755841
20
1.1673259812757766
30
1.9669305554382694e-16
11
-3.6701894938755841
21
1.1673259812757766
31
2.0215675153115546e-16
0
LINE
5
142
100
AcDbEntity
8
0
100
AcDbLine
10
-3.6701894938755841
20
1.1673259812757766
30
2.0215675153115546e-16
11
-3.6701894938755841
21
1.2959625451560597
31
1.9669305554382694e-16
0
SPLINE
5
143
100
AcDbEntity
8
0
100
AcDbSpline
70
0
71
3
72
17
73
13
74
0
42
0.000000001
43
0.0000000001
44
0.0000000001
40
-0.39822328931518464
40
-0.39822328931518464
40
-0.39822328931518464
40
-0.39822328931518464
40
-0.35268522357106447
40
-0.35268522357106447
40
-0.23509643388126111
40
-0.23509643388126111
40
-0.11753664950025011
40
-0.11753664950025011
40
2.2204460492503131e-16
40
2.2204460492503131e-16
40
2.2204460492503131e-16
40
0.080026153335374925
40
0.080026153335374925
40
0.080026153335374925
40
0.080026153335374925
10
-3.6701894944527629
20
1.2959625427648673
30
-1.5298348764519871e-16
10
-3.6764890440139921
20
1.2975162727602498
30
5.4636959873285255e-16
10
-3.6825730522031197
20
1.2995542501542632
30
1.9669305554382694e-16
10
-3.7023518809626821
20
1.3077450115129425
30
-1.5298348764519871e-16
10
-3.7177503836647601
20
1.3180308980661983
30
-5.0266003083422441e-16
10
-3.7395738466113646
20
1.3398492068130861
30
1.9669305554382694e-16
10
-3.7498613787105488
20
1.3552411164024978
30
1.9669305554382694e-16
10
-3.7616703927011961
20
1.3837442224332979
30
1.9669305554382694e-16
10
-3.7652824362050459
20
1.4018980774934053
30
-1.5298348764519871e-16
10
-3.7652824362050459
20
1.4173228346456692
30
-1.5298348764519871e-16
10
-3.7652824362050459
20
1.4278249545059547
30
-1.5298348764519871e-16
10
-3.7637933824143528
20
1.4396422171156527
30
5.4636959873285255e-16
10
-3.7607810603551921
20
1.45055931338956
30
5.4636959873285255e-16
0
CIRCLE
5
144
100
AcDbEntity
8
0
100
AcDbCircle
10
-3.6796418124217629
20
1.0629921353708101
30
5.4636959873285255e-16
40
0.039370078740157341
210
0
220
-0
230
1
0
ENDSEC
0
SECTION
2
OBJECTS
0
DICTIONARY
5
C
100
AcDbDictionary
3
ACAD_GROUP
350
D
3
ACAD_MLINESTYLE
350
17
0
DICTIONARY
5
D
100
AcDbDictionary
0
DICTIONARY
5
1A
330
C
100
AcDbDictionary
0
DICTIONARY
5
17
100
AcDbDictionary
0
ENDSEC
0
EOF
