0
SECTION
2
HEADER
9
$INSUNITS
70
4
9
$ACADVER
1
AC1014
9
$HANDSEED
5
FFFF
0
ENDSEC
0
SECTION
2
TABLES
0
TABLE
2
VPORT
5
8
100
AcDbSymbolTable
0
ENDTAB
0
TABLE
2
LTYPE
5
5
100
AcDbSymbolTable
0
LTYPE
5
14
100
AcDbSymbolTableRecord
100
AcDbLinetypeTableRecord
2
BYBLOCK
70
0
0
LTYPE
5
15
100
AcDbSymbolTableRecord
100
AcDbLinetypeTableRecord
2
BYLAYER
70
0
0
ENDTAB
0
TABLE
2
LAYER
5
2
100
AcDbSymbolTable
70
2
0
LAYER
5
50
100
AcDbSymbolTableRecord
100
AcDbLayerTableRecord
2
0
70
0
6
CONTINUOUS
0
ENDTAB
0
TABLE
2
STYLE
5
3
100
AcDbSymbolTable
70
1
0
STYLE
5
11
100
AcDbSymbolTableRecord
100
AcDbTextStyleTableRecord
2
STANDARD
70
0
0
ENDTAB
0
TABLE
2
VIEW
5
6
100
AcDbSymbolTable
70
0
0
ENDTAB
0
TABLE
2
UCS
5
7
100
AcDbSymbolTable
70
0
0
ENDTAB
0
TABLE
2
APPID
5
9
100
AcDbSymbolTable
70
2
0
APPID
5
12
100
AcDbSymbolTableRecord
100
AcDbRegAppTableRecord
2
ACAD
70
0
0
ENDTAB
0
TABLE
2
DIMSTYLE
5
A
100
AcDbSymbolTable
70
1
0
ENDTAB
0
TABLE
2
BLOCK_RECORD
5
1
100
AcDbSymbolTable
70
1
0
BLOCK_RECORD
5
1F
100
AcDbSymbolTableRecord
100
AcDbBlockTableRecord
2
*MODEL_SPACE
0
BLOCK_RECORD
5
1B
100
AcDbSymbolTableRecord
100
AcDbBlockTableRecord
2
*PAPER_SPACE
0
ENDTAB
0
ENDSEC
0
SECTION
2
BLOCKS
0
BLOCK
5
20
100
AcDbEntity
100
AcDbBlockBegin
2
*MODEL_SPACE
0
ENDBLK
5
21
100
AcDbEntity
100
AcDbBlockEnd
0
BLOCK
5
1C
100
AcDbEntity
100
AcDbBlockBegin
2
*PAPER_SPACE
0
ENDBLK
5
1D
100
AcDbEntity
100
AcDbBlockEnd
0
ENDSEC
0
SECTION
2
ENTITIES
0
LWPOLYLINE
5
100
100
AcDbEntity
8
0
100
AcDbPolyline
90
8
70
1
43
0.0
10
104.20827619999997
20
-12.699999999999978
42
-2.4142135623730567
10
103.7082762
20
-12.199999999999989
10
103.7082762
20
-6.849999999999997
42
-2.4142135623730616
10
104.2082762
20
-6.3499999999999801
10
109.55827619999999
20
-6.3499999999999801
42
-2.4142135623730567
10
110.05827620000002
20
-6.8499999999999872
10
110.05827620000002
20
-12.199999999999973
42
-2.4142135623730416
10
109.55827620000001
20
-12.699999999999996
0
LWPOLYLINE
5
101
100
AcDbEntity
8
0
100
AcDbPolyline
90
8
70
1
43
0.0
10
26.738123799999993
20
-12.699999999999978
42
-2.4142135623731176
10
26.2381238
20
-12.19999999999998
10
26.2381238
20
-6.8499999999999774
42
-2.4142135623731131
10
26.738123799999993
20
-6.3499999999999801
10
32.088123799999991
20
-6.3499999999999801
42
-2.4142135623730492
10
32.588123800000005
20
-6.8499999999999783
10
32.588123800000005
20
-12.199999999999974
42
-2.414213562373019
10
32.088123799999991
20
-12.699999999999996
0
LWPOLYLINE
5
102
100
AcDbEntity
8
0
100
AcDbPolyline
90
8
70
1
43
0.0
10
32.588123799999998
20
-129.44639999999998
42
-2.4142135623730492
10
32.088123799999991
20
-129.94639999999998
10
26.738123800000015
20
-129.94639999999998
42
-2.41421356237311
10
26.238123799999997
20
-129.44639999999998
10
26.2381238
20
-124.09640000000003
42
-2.41421356237311
10
26.738123799999993
20
-123.59639999999999
10
32.08812380000002
20
-123.59639999999999
42
-2.4142135623730949
10
32.588123799999991
20
-124.09639999999999
0
LWPOLYLINE
5
103
100
AcDbEntity
8
0
100
AcDbPolyline
90
8
70
1
43
0.0
10
104.2082762
20
-129.94639999999998
42
-2.4142135623730341
10
103.7082762
20
-129.44639999999998
10
103.7082762
20
-124.09640000000002
42
-2.4142135623730341
10
104.2082762
20
-123.59639999999999
10
109.55827620000001
20
-123.59639999999999
42
-2.4142135623730949
10
110.05827620000002
20
-124.09639999999999
10
110.05827620000002
20
-129.44640000000001
42
-2.4142135623730949
10
109.55827620000001
20
-129.94639999999998
0
CIRCLE
5
104
100
AcDbEntity
8
0
100
AcDbCircle
10
89.831718181818161
20
-34.074100000000001
30
0
40
2.2716066666666634
210
0
220
0
230
1
0
CIRCLE
5
105
100
AcDbEntity
8
0
100
AcDbCircle
10
65.050554545454531
20
-34.074100000000001
30
0
40
2.2716066666666634
210
0
220
0
230
1
0
CIRCLE
5
106
100
AcDbEntity
8
0
100
AcDbCircle
10
40.269390909090895
20
-34.074100000000001
30
0
40
2.2716066666666541
210
0
220
0
230
1
0
CIRCLE
5
107
100
AcDbEntity
8
0
100
AcDbCircle
10
89.831718181818161
20
-40.269390909090916
30
0
40
2.2716066666666634
210
0
220
0
230
1
0
CIRCLE
5
108
100
AcDbEntity
8
0
100
AcDbCircle
10
65.050554545454531
20
-40.269390909090916
30
0
40
2.2716066666666634
210
0
220
0
230
1
0
CIRCLE
5
109
100
AcDbEntity
8
0
100
AcDbCircle
10
40.269390909090895
20
-40.269390909090916
30
0
40
2.2716066666666541
210
0
220
0
230
1
0
CIRCLE
5
110
100
AcDbEntity
8
0
100
AcDbCircle
10
89.831718181818161
20
-46.464681818181823
30
0
40
2.2716066666666634
210
0
220
0
230
1
0
CIRCLE
5
111
100
AcDbEntity
8
0
100
AcDbCircle
10
65.050554545454531
20
-46.464681818181823
30
0
40
2.2716066666666634
210
0
220
0
230
1
0
CIRCLE
5
112
100
AcDbEntity
8
0
100
AcDbCircle
10
40.269390909090895
20
-46.464681818181823
30
0
40
2.2716066666666541
210
0
220
0
230
1
0
CIRCLE
5
113
100
AcDbEntity
8
0
100
AcDbCircle
10
89.831718181818161
20
-52.659972727272731
30
0
40
2.2716066666666634
210
0
220
0
230
1
0
CIRCLE
5
114
100
AcDbEntity
8
0
100
AcDbCircle
10
65.050554545454531
20
-52.659972727272731
30
0
40
2.2716066666666634
210
0
220
0
230
1
0
CIRCLE
5
115
100
AcDbEntity
8
0
100
AcDbCircle
10
40.269390909090895
20
-52.659972727272731
30
0
40
2.2716066666666541
210
0
220
0
230
1
0
CIRCLE
5
116
100
AcDbEntity
8
0
100
AcDbCircle
10
89.831718181818161
20
-58.855263636363645
30
0
40
2.2716066666666634
210
0
220
0
230
1
0
CIRCLE
5
117
100
AcDbEntity
8
0
100
AcDbCircle
10
65.050554545454531
20
-58.855263636363645
30
0
40
2.2716066666666634
210
0
220
0
230
1
0
CIRCLE
5
118
100
AcDbEntity
8
0
100
AcDbCircle
10
40.269390909090895
20
-58.855263636363645
30
0
40
2.2716066666666541
210
0
220
0
230
1
0
CIRCLE
5
119
100
AcDbEntity
8
0
100
AcDbCircle
10
89.831718181818161
20
-65.050554545454546
30
0
40
2.2716066666666634
210
0
220
0
230
1
0
CIRCLE
5
120
100
AcDbEntity
8
0
100
AcDbCircle
10
65.050554545454531
20
-65.050554545454546
30
0
40
2.2716066666666634
210
0
220
0
230
1
0
CIRCLE
5
121
100
AcDbEntity
8
0
100
AcDbCircle
10
40.269390909090895
20
-65.050554545454546
30
0
40
2.2716066666666541
210
0
220
0
230
1
0
CIRCLE
5
122
100
AcDbEntity
8
0
100
AcDbCircle
10
89.831718181818161
20
-71.24584545454546
30
0
40
2.2716066666666634
210
0
220
0
230
1
0
CIRCLE
5
123
100
AcDbEntity
8
0
100
AcDbCircle
10
65.050554545454531
20
-71.24584545454546
30
0
40
2.2716066666666634
210
0
220
0
230
1
0
CIRCLE
5
124
100
AcDbEntity
8
0
100
AcDbCircle
10
40.269390909090895
20
-71.24584545454546
30
0
40
2.2716066666666541
210
0
220
0
230
1
0
CIRCLE
5
125
100
AcDbEntity
8
0
100
AcDbCircle
10
89.831718181818161
20
-77.44113636363636
30
0
40
2.2716066666666634
210
0
220
0
230
1
0
CIRCLE
5
126
100
AcDbEntity
8
0
100
AcDbCircle
10
65.050554545454531
20
-77.44113636363636
30
0
40
2.2716066666666634
210
0
220
0
230
1
0
CIRCLE
5
127
100
AcDbEntity
8
0
100
AcDbCircle
10
40.269390909090895
20
-77.44113636363636
30
0
40
2.2716066666666541
210
0
220
0
230
1
0
CIRCLE
5
128
100
AcDbEntity
8
0
100
AcDbCircle
10
89.831718181818161
20
-83.636427272727275
30
0
40
2.2716066666666634
210
0
220
0
230
1
0
CIRCLE
5
129
100
AcDbEntity
8
0
100
AcDbCircle
10
65.050554545454531
20
-83.636427272727275
30
0
40
2.2716066666666634
210
0
220
0
230
1
0
CIRCLE
5
130
100
AcDbEntity
8
0
100
AcDbCircle
10
40.269390909090895
20
-83.636427272727275
30
0
40
2.2716066666666541
210
0
220
0
230
1
0
CIRCLE
5
131
100
AcDbEntity
8
0
100
AcDbCircle
10
89.831718181818161
20
-89.831718181818175
30
0
40
2.2716066666666634
210
0
220
0
230
1
0
CIRCLE
5
132
100
AcDbEntity
8
0
100
AcDbCircle
10
65.050554545454531
20
-89.831718181818175
30
0
40
2.2716066666666634
210
0
220
0
230
1
0
CIRCLE
5
133
100
AcDbEntity
8
0
100
AcDbCircle
10
40.269390909090895
20
-89.831718181818175
30
0
40
2.2716066666666541
210
0
220
0
230
1
0
CIRCLE
5
134
100
AcDbEntity
8
0
100
AcDbCircle
10
89.831718181818161
20
-96.027009090909104
30
0
40
2.2716066666666634
210
0
220
0
230
1
0
CIRCLE
5
135
100
AcDbEntity
8
0
100
AcDbCircle
10
65.050554545454531
20
-96.027009090909104
30
0
40
2.2716066666666634
210
0
220
0
230
1
0
CIRCLE
5
136
100
AcDbEntity
8
0
100
AcDbCircle
10
40.269390909090895
20
-96.027009090909104
30
0
40
2.2716066666666541
210
0
220
0
230
1
0
CIRCLE
5
137
100
AcDbEntity
8
0
100
AcDbCircle
10
89.831718181818161
20
-102.22229999999999
30
0
40
2.2716066666666634
210
0
220
0
230
1
0
CIRCLE
5
138
100
AcDbEntity
8
0
100
AcDbCircle
10
65.050554545454531
20
-102.22229999999999
30
0
40
2.2716066666666634
210
0
220
0
230
1
0
CIRCLE
5
139
100
AcDbEntity
8
0
100
AcDbCircle
10
40.269390909090895
20
-102.22229999999999
30
0
40
2.2716066666666541
210
0
220
0
230
1
0
CIRCLE
5
140
100
AcDbEntity
8
0
100
AcDbCircle
10
46.464681818181802
20
-102.22229999999999
30
0
40
2.2716066666666634
210
0
220
0
230
1
0
CIRCLE
5
141
100
AcDbEntity
8
0
100
AcDbCircle
10
71.245845454545432
20
-102.22229999999999
30
0
40
2.2716066666666541
210
0
220
0
230
1
0
CIRCLE
5
142
100
AcDbEntity
8
0
100
AcDbCircle
10
96.027009090909061
20
-102.22229999999999
30
0
40
2.2716066666666634
210
0
220
0
230
1
0
CIRCLE
5
143
100
AcDbEntity
8
0
100
AcDbCircle
10
46.464681818181802
20
-96.027009090909104
30
0
40
2.2716066666666634
210
0
220
0
230
1
0
CIRCLE
5
144
100
AcDbEntity
8
0
100
AcDbCircle
10
71.245845454545432
20
-96.027009090909104
30
0
40
2.2716066666666541
210
0
220
0
230
1
0
CIRCLE
5
145
100
AcDbEntity
8
0
100
AcDbCircle
10
96.027009090909061
20
-96.027009090909104
30
0
40
2.2716066666666634
210
0
220
0
230
1
0
CIRCLE
5
146
100
AcDbEntity
8
0
100
AcDbCircle
10
46.464681818181802
20
-89.831718181818175
30
0
40
2.2716066666666634
210
0
220
0
230
1
0
CIRCLE
5
147
100
AcDbEntity
8
0
100
AcDbCircle
10
71.245845454545432
20
-89.831718181818175
30
0
40
2.2716066666666541
210
0
220
0
230
1
0
CIRCLE
5
148
100
AcDbEntity
8
0
100
AcDbCircle
10
96.027009090909061
20
-89.831718181818175
30
0
40
2.2716066666666634
210
0
220
0
230
1
0
CIRCLE
5
149
100
AcDbEntity
8
0
100
AcDbCircle
10
46.464681818181802
20
-83.636427272727275
30
0
40
2.2716066666666634
210
0
220
0
230
1
0
CIRCLE
5
150
100
AcDbEntity
8
0
100
AcDbCircle
10
71.245845454545432
20
-83.636427272727275
30
0
40
2.2716066666666541
210
0
220
0
230
1
0
CIRCLE
5
151
100
AcDbEntity
8
0
100
AcDbCircle
10
96.027009090909061
20
-83.636427272727275
30
0
40
2.2716066666666634
210
0
220
0
230
1
0
CIRCLE
5
152
100
AcDbEntity
8
0
100
AcDbCircle
10
46.464681818181802
20
-77.44113636363636
30
0
40
2.2716066666666634
210
0
220
0
230
1
0
CIRCLE
5
153
100
AcDbEntity
8
0
100
AcDbCircle
10
71.245845454545432
20
-77.44113636363636
30
0
40
2.2716066666666541
210
0
220
0
230
1
0
CIRCLE
5
154
100
AcDbEntity
8
0
100
AcDbCircle
10
96.027009090909061
20
-77.44113636363636
30
0
40
2.2716066666666634
210
0
220
0
230
1
0
CIRCLE
5
155
100
AcDbEntity
8
0
100
AcDbCircle
10
46.464681818181802
20
-71.24584545454546
30
0
40
2.2716066666666634
210
0
220
0
230
1
0
CIRCLE
5
156
100
AcDbEntity
8
0
100
AcDbCircle
10
71.245845454545432
20
-71.24584545454546
30
0
40
2.2716066666666541
210
0
220
0
230
1
0
CIRCLE
5
157
100
AcDbEntity
8
0
100
AcDbCircle
10
96.027009090909061
20
-71.24584545454546
30
0
40
2.2716066666666634
210
0
220
0
230
1
0
CIRCLE
5
158
100
AcDbEntity
8
0
100
AcDbCircle
10
46.464681818181802
20
-65.050554545454546
30
0
40
2.2716066666666634
210
0
220
0
230
1
0
CIRCLE
5
159
100
AcDbEntity
8
0
100
AcDbCircle
10
71.245845454545432
20
-65.050554545454546
30
0
40
2.2716066666666541
210
0
220
0
230
1
0
CIRCLE
5
160
100
AcDbEntity
8
0
100
AcDbCircle
10
96.027009090909061
20
-65.050554545454546
30
0
40
2.2716066666666634
210
0
220
0
230
1
0
CIRCLE
5
161
100
AcDbEntity
8
0
100
AcDbCircle
10
46.464681818181802
20
-58.855263636363645
30
0
40
2.2716066666666634
210
0
220
0
230
1
0
CIRCLE
5
162
100
AcDbEntity
8
0
100
AcDbCircle
10
71.245845454545432
20
-58.855263636363645
30
0
40
2.2716066666666541
210
0
220
0
230
1
0
CIRCLE
5
163
100
AcDbEntity
8
0
100
AcDbCircle
10
96.027009090909061
20
-58.855263636363645
30
0
40
2.2716066666666634
210
0
220
0
230
1
0
CIRCLE
5
164
100
AcDbEntity
8
0
100
AcDbCircle
10
46.464681818181802
20
-52.659972727272731
30
0
40
2.2716066666666634
210
0
220
0
230
1
0
CIRCLE
5
165
100
AcDbEntity
8
0
100
AcDbCircle
10
71.245845454545432
20
-52.659972727272731
30
0
40
2.2716066666666541
210
0
220
0
230
1
0
CIRCLE
5
166
100
AcDbEntity
8
0
100
AcDbCircle
10
96.027009090909061
20
-52.659972727272731
30
0
40
2.2716066666666634
210
0
220
0
230
1
0
CIRCLE
5
167
100
AcDbEntity
8
0
100
AcDbCircle
10
46.464681818181802
20
-46.464681818181823
30
0
40
2.2716066666666634
210
0
220
0
230
1
0
CIRCLE
5
168
100
AcDbEntity
8
0
100
AcDbCircle
10
71.245845454545432
20
-46.464681818181823
30
0
40
2.2716066666666541
210
0
220
0
230
1
0
CIRCLE
5
169
100
AcDbEntity
8
0
100
AcDbCircle
10
96.027009090909061
20
-46.464681818181823
30
0
40
2.2716066666666634
210
0
220
0
230
1
0
CIRCLE
5
170
100
AcDbEntity
8
0
100
AcDbCircle
10
46.464681818181802
20
-40.269390909090916
30
0
40
2.2716066666666634
210
0
220
0
230
1
0
CIRCLE
5
171
100
AcDbEntity
8
0
100
AcDbCircle
10
71.245845454545432
20
-40.269390909090916
30
0
40
2.2716066666666541
210
0
220
0
230
1
0
CIRCLE
5
172
100
AcDbEntity
8
0
100
AcDbCircle
10
96.027009090909061
20
-40.269390909090916
30
0
40
2.2716066666666634
210
0
220
0
230
1
0
CIRCLE
5
173
100
AcDbEntity
8
0
100
AcDbCircle
10
46.464681818181802
20
-34.074100000000001
30
0
40
2.2716066666666634
210
0
220
0
230
1
0
CIRCLE
5
174
100
AcDbEntity
8
0
100
AcDbCircle
10
71.245845454545432
20
-34.074100000000001
30
0
40
2.2716066666666541
210
0
220
0
230
1
0
CIRCLE
5
175
100
AcDbEntity
8
0
100
AcDbCircle
10
96.027009090909061
20
-34.074100000000001
30
0
40
2.2716066666666634
210
0
220
0
230
1
0
CIRCLE
5
176
100
AcDbEntity
8
0
100
AcDbCircle
10
83.636427272727261
20
-34.074100000000001
30
0
40
2.2716066666666634
210
0
220
0
230
1
0
CIRCLE
5
177
100
AcDbEntity
8
0
100
AcDbCircle
10
58.855263636363624
20
-34.074100000000001
30
0
40
2.2716066666666634
210
0
220
0
230
1
0
CIRCLE
5
178
100
AcDbEntity
8
0
100
AcDbCircle
10
34.074099999999987
20
-34.074100000000001
30
0
40
2.271606666666659
210
0
220
0
230
1
0
CIRCLE
5
179
100
AcDbEntity
8
0
100
AcDbCircle
10
83.636427272727261
20
-40.269390909090916
30
0
40
2.2716066666666634
210
0
220
0
230
1
0
CIRCLE
5
180
100
AcDbEntity
8
0
100
AcDbCircle
10
58.855263636363624
20
-40.269390909090916
30
0
40
2.2716066666666634
210
0
220
0
230
1
0
CIRCLE
5
181
100
AcDbEntity
8
0
100
AcDbCircle
10
34.074099999999987
20
-40.269390909090916
30
0
40
2.271606666666659
210
0
220
0
230
1
0
CIRCLE
5
182
100
AcDbEntity
8
0
100
AcDbCircle
10
83.636427272727261
20
-46.464681818181823
30
0
40
2.2716066666666634
210
0
220
0
230
1
0
CIRCLE
5
183
100
AcDbEntity
8
0
100
AcDbCircle
10
58.855263636363624
20
-46.464681818181823
30
0
40
2.2716066666666634
210
0
220
0
230
1
0
CIRCLE
5
184
100
AcDbEntity
8
0
100
AcDbCircle
10
34.074099999999987
20
-46.464681818181823
30
0
40
2.271606666666659
210
0
220
0
230
1
0
CIRCLE
5
185
100
AcDbEntity
8
0
100
AcDbCircle
10
83.636427272727261
20
-52.659972727272731
30
0
40
2.2716066666666634
210
0
220
0
230
1
0
CIRCLE
5
186
100
AcDbEntity
8
0
100
AcDbCircle
10
58.855263636363624
20
-52.659972727272731
30
0
40
2.2716066666666634
210
0
220
0
230
1
0
CIRCLE
5
187
100
AcDbEntity
8
0
100
AcDbCircle
10
34.074099999999987
20
-52.659972727272731
30
0
40
2.271606666666659
210
0
220
0
230
1
0
CIRCLE
5
188
100
AcDbEntity
8
0
100
AcDbCircle
10
83.636427272727261
20
-58.855263636363645
30
0
40
2.2716066666666634
210
0
220
0
230
1
0
CIRCLE
5
189
100
AcDbEntity
8
0
100
AcDbCircle
10
58.855263636363624
20
-58.855263636363645
30
0
40
2.2716066666666634
210
0
220
0
230
1
0
CIRCLE
5
190
100
AcDbEntity
8
0
100
AcDbCircle
10
34.074099999999987
20
-58.855263636363645
30
0
40
2.271606666666659
210
0
220
0
230
1
0
CIRCLE
5
191
100
AcDbEntity
8
0
100
AcDbCircle
10
83.636427272727261
20
-65.050554545454546
30
0
40
2.2716066666666634
210
0
220
0
230
1
0
CIRCLE
5
192
100
AcDbEntity
8
0
100
AcDbCircle
10
58.855263636363624
20
-65.050554545454546
30
0
40
2.2716066666666634
210
0
220
0
230
1
0
CIRCLE
5
193
100
AcDbEntity
8
0
100
AcDbCircle
10
34.074099999999987
20
-65.050554545454546
30
0
40
2.271606666666659
210
0
220
0
230
1
0
CIRCLE
5
194
100
AcDbEntity
8
0
100
AcDbCircle
10
83.636427272727261
20
-71.24584545454546
30
0
40
2.2716066666666634
210
0
220
0
230
1
0
CIRCLE
5
195
100
AcDbEntity
8
0
100
AcDbCircle
10
58.855263636363624
20
-71.24584545454546
30
0
40
2.2716066666666634
210
0
220
0
230
1
0
CIRCLE
5
196
100
AcDbEntity
8
0
100
AcDbCircle
10
34.074099999999987
20
-71.24584545454546
30
0
40
2.271606666666659
210
0
220
0
230
1
0
CIRCLE
5
197
100
AcDbEntity
8
0
100
AcDbCircle
10
83.636427272727261
20
-77.44113636363636
30
0
40
2.2716066666666634
210
0
220
0
230
1
0
CIRCLE
5
198
100
AcDbEntity
8
0
100
AcDbCircle
10
58.855263636363624
20
-77.44113636363636
30
0
40
2.2716066666666634
210
0
220
0
230
1
0
CIRCLE
5
199
100
AcDbEntity
8
0
100
AcDbCircle
10
34.074099999999987
20
-77.44113636363636
30
0
40
2.271606666666659
210
0
220
0
230
1
0
CIRCLE
5
200
100
AcDbEntity
8
0
100
AcDbCircle
10
83.636427272727261
20
-83.636427272727275
30
0
40
2.2716066666666634
210
0
220
0
230
1
0
CIRCLE
5
201
100
AcDbEntity
8
0
100
AcDbCircle
10
58.855263636363624
20
-83.636427272727275
30
0
40
2.2716066666666634
210
0
220
0
230
1
0
CIRCLE
5
202
100
AcDbEntity
8
0
100
AcDbCircle
10
34.074099999999987
20
-83.636427272727275
30
0
40
2.271606666666659
210
0
220
0
230
1
0
CIRCLE
5
203
100
AcDbEntity
8
0
100
AcDbCircle
10
83.636427272727261
20
-89.831718181818175
30
0
40
2.2716066666666634
210
0
220
0
230
1
0
CIRCLE
5
204
100
AcDbEntity
8
0
100
AcDbCircle
10
58.855263636363624
20
-89.831718181818175
30
0
40
2.2716066666666634
210
0
220
0
230
1
0
CIRCLE
5
205
100
AcDbEntity
8
0
100
AcDbCircle
10
34.074099999999987
20
-89.831718181818175
30
0
40
2.271606666666659
210
0
220
0
230
1
0
CIRCLE
5
206
100
AcDbEntity
8
0
100
AcDbCircle
10
83.636427272727261
20
-96.027009090909104
30
0
40
2.2716066666666634
210
0
220
0
230
1
0
CIRCLE
5
207
100
AcDbEntity
8
0
100
AcDbCircle
10
58.855263636363624
20
-96.027009090909104
30
0
40
2.2716066666666634
210
0
220
0
230
1
0
CIRCLE
5
208
100
AcDbEntity
8
0
100
AcDbCircle
10
34.074099999999987
20
-96.027009090909104
30
0
40
2.271606666666659
210
0
220
0
230
1
0
CIRCLE
5
209
100
AcDbEntity
8
0
100
AcDbCircle
10
83.636427272727261
20
-102.22229999999999
30
0
40
2.2716066666666634
210
0
220
0
230
1
0
CIRCLE
5
210
100
AcDbEntity
8
0
100
AcDbCircle
10
58.855263636363624
20
-102.22229999999999
30
0
40
2.2716066666666634
210
0
220
0
230
1
0
CIRCLE
5
211
100
AcDbEntity
8
0
100
AcDbCircle
10
34.074099999999987
20
-102.22229999999999
30
0
40
2.271606666666659
210
0
220
0
230
1
0
CIRCLE
5
212
100
AcDbEntity
8
0
100
AcDbCircle
10
52.659972727272702
20
-102.22229999999999
30
0
40
2.2716066666666634
210
0
220
0
230
1
0
CIRCLE
5
213
100
AcDbEntity
8
0
100
AcDbCircle
10
77.441136363636346
20
-102.22229999999999
30
0
40
2.2716066666666634
210
0
220
0
230
1
0
CIRCLE
5
214
100
AcDbEntity
8
0
100
AcDbCircle
10
102.22229999999998
20
-102.22229999999999
30
0
40
2.2716066666666634
210
0
220
0
230
1
0
CIRCLE
5
215
100
AcDbEntity
8
0
100
AcDbCircle
10
52.659972727272702
20
-96.027009090909104
30
0
40
2.2716066666666634
210
0
220
0
230
1
0
CIRCLE
5
216
100
AcDbEntity
8
0
100
AcDbCircle
10
77.441136363636346
20
-96.027009090909104
30
0
40
2.2716066666666634
210
0
220
0
230
1
0
CIRCLE
5
217
100
AcDbEntity
8
0
100
AcDbCircle
10
102.22229999999998
20
-96.027009090909104
30
0
40
2.2716066666666634
210
0
220
0
230
1
0
CIRCLE
5
218
100
AcDbEntity
8
0
100
AcDbCircle
10
52.659972727272702
20
-89.831718181818175
30
0
40
2.2716066666666634
210
0
220
0
230
1
0
CIRCLE
5
219
100
AcDbEntity
8
0
100
AcDbCircle
10
77.441136363636346
20
-89.831718181818175
30
0
40
2.2716066666666634
210
0
220
0
230
1
0
CIRCLE
5
220
100
AcDbEntity
8
0
100
AcDbCircle
10
102.22229999999998
20
-89.831718181818175
30
0
40
2.2716066666666634
210
0
220
0
230
1
0
CIRCLE
5
221
100
AcDbEntity
8
0
100
AcDbCircle
10
52.659972727272702
20
-83.636427272727275
30
0
40
2.2716066666666634
210
0
220
0
230
1
0
CIRCLE
5
222
100
AcDbEntity
8
0
100
AcDbCircle
10
77.441136363636346
20
-83.636427272727275
30
0
40
2.2716066666666634
210
0
220
0
230
1
0
CIRCLE
5
223
100
AcDbEntity
8
0
100
AcDbCircle
10
102.22229999999998
20
-83.636427272727275
30
0
40
2.2716066666666634
210
0
220
0
230
1
0
CIRCLE
5
224
100
AcDbEntity
8
0
100
AcDbCircle
10
52.659972727272702
20
-77.44113636363636
30
0
40
2.2716066666666634
210
0
220
0
230
1
0
CIRCLE
5
225
100
AcDbEntity
8
0
100
AcDbCircle
10
77.441136363636346
20
-77.44113636363636
30
0
40
2.2716066666666634
210
0
220
0
230
1
0
CIRCLE
5
226
100
AcDbEntity
8
0
100
AcDbCircle
10
102.22229999999998
20
-77.44113636363636
30
0
40
2.2716066666666634
210
0
220
0
230
1
0
CIRCLE
5
227
100
AcDbEntity
8
0
100
AcDbCircle
10
52.659972727272702
20
-71.24584545454546
30
0
40
2.2716066666666634
210
0
220
0
230
1
0
CIRCLE
5
228
100
AcDbEntity
8
0
100
AcDbCircle
10
77.441136363636346
20
-71.24584545454546
30
0
40
2.2716066666666634
210
0
220
0
230
1
0
CIRCLE
5
229
100
AcDbEntity
8
0
100
AcDbCircle
10
102.22229999999998
20
-71.24584545454546
30
0
40
2.2716066666666634
210
0
220
0
230
1
0
CIRCLE
5
230
100
AcDbEntity
8
0
100
AcDbCircle
10
52.659972727272702
20
-65.050554545454546
30
0
40
2.2716066666666634
210
0
220
0
230
1
0
CIRCLE
5
231
100
AcDbEntity
8
0
100
AcDbCircle
10
77.441136363636346
20
-65.050554545454546
30
0
40
2.2716066666666634
210
0
220
0
230
1
0
CIRCLE
5
232
100
AcDbEntity
8
0
100
AcDbCircle
10
102.22229999999998
20
-65.050554545454546
30
0
40
2.2716066666666634
210
0
220
0
230
1
0
CIRCLE
5
233
100
AcDbEntity
8
0
100
AcDbCircle
10
52.659972727272702
20
-58.855263636363645
30
0
40
2.2716066666666634
210
0
220
0
230
1
0
CIRCLE
5
234
100
AcDbEntity
8
0
100
AcDbCircle
10
77.441136363636346
20
-58.855263636363645
30
0
40
2.2716066666666634
210
0
220
0
230
1
0
CIRCLE
5
235
100
AcDbEntity
8
0
100
AcDbCircle
10
102.22229999999998
20
-58.855263636363645
30
0
40
2.2716066666666634
210
0
220
0
230
1
0
CIRCLE
5
236
100
AcDbEntity
8
0
100
AcDbCircle
10
52.659972727272702
20
-52.659972727272731
30
0
40
2.2716066666666634
210
0
220
0
230
1
0
CIRCLE
5
237
100
AcDbEntity
8
0
100
AcDbCircle
10
77.441136363636346
20
-52.659972727272731
30
0
40
2.2716066666666634
210
0
220
0
230
1
0
CIRCLE
5
238
100
AcDbEntity
8
0
100
AcDbCircle
10
102.22229999999998
20
-52.659972727272731
30
0
40
2.2716066666666634
210
0
220
0
230
1
0
CIRCLE
5
239
100
AcDbEntity
8
0
100
AcDbCircle
10
52.659972727272702
20
-46.464681818181823
30
0
40
2.2716066666666634
210
0
220
0
230
1
0
CIRCLE
5
240
100
AcDbEntity
8
0
100
AcDbCircle
10
77.441136363636346
20
-46.464681818181823
30
0
40
2.2716066666666634
210
0
220
0
230
1
0
CIRCLE
5
241
100
AcDbEntity
8
0
100
AcDbCircle
10
102.22229999999998
20
-46.464681818181823
30
0
40
2.2716066666666634
210
0
220
0
230
1
0
CIRCLE
5
242
100
AcDbEntity
8
0
100
AcDbCircle
10
52.659972727272702
20
-40.269390909090916
30
0
40
2.2716066666666634
210
0
220
0
230
1
0
CIRCLE
5
243
100
AcDbEntity
8
0
100
AcDbCircle
10
77.441136363636346
20
-40.269390909090916
30
0
40
2.2716066666666634
210
0
220
0
230
1
0
CIRCLE
5
244
100
AcDbEntity
8
0
100
AcDbCircle
10
102.22229999999998
20
-40.269390909090916
30
0
40
2.2716066666666634
210
0
220
0
230
1
0
CIRCLE
5
245
100
AcDbEntity
8
0
100
AcDbCircle
10
52.659972727272702
20
-34.074100000000001
30
0
40
2.2716066666666634
210
0
220
0
230
1
0
CIRCLE
5
246
100
AcDbEntity
8
0
100
AcDbCircle
10
77.441136363636346
20
-34.074100000000001
30
0
40
2.2716066666666634
210
0
220
0
230
1
0
CIRCLE
5
247
100
AcDbEntity
8
0
100
AcDbCircle
10
102.22229999999998
20
-34.074100000000001
30
0
40
2.2716066666666634
210
0
220
0
230
1
0
CIRCLE
5
248
100
AcDbEntity
8
0
100
AcDbCircle
10
95.759554150054086
20
-125.35893508814513
30
0
40
0.94614999999999794
210
0
220
-0
230
1
0
CIRCLE
5
249
100
AcDbEntity
8
0
100
AcDbCircle
10
11.30455415005413
20
-125.35893508814516
30
0
40
0.94614999999999794
210
0
220
-0
230
1
0
CIRCLE
5
250
100
AcDbEntity
8
0
100
AcDbCircle
10
11.304554150054148
20
-11.058935088145141
30
0
40
0.94614999999999794
210
0
220
-0
230
1
0
CIRCLE
5
251
100
AcDbEntity
8
0
100
AcDbCircle
10
95.7595541500541
20
-11.058935088145141
30
0
40
0.94614999999999794
210
0
220
-0
230
1
0
LWPOLYLINE
5
252
100
AcDbEntity
8
0
100
AcDbPolyline
90
4
70
1
43
0.0
10
136.29639999999998
20
-136.29639999999998
10
0
20
-136.29639999999998
10
0
20
0
10
136.29639999999998
20
0
0
ENDSEC
0
SECTION
2
OBJECTS
0
DICTIONARY
5
C
100
AcDbDictionary
3
ACAD_GROUP
350
D
3
ACAD_MLINESTYLE
350
17
0
DICTIONARY
5
D
100
AcDbDictionary
0
DICTIONARY
5
1A
330
C
100
AcDbDictionary
0
DICTIONARY
5
17
100
AcDbDictionary
0
ENDSEC
0
EOF
