0
SECTION
2
HEADER
9
$INSUNITS
70
1
9
$ACADVER
1
AC1014
9
$HANDSEED
5
FFFF
0
ENDSEC
0
SECTION
2
TABLES
0
TABLE
2
VPORT
5
8
100
AcDbSymbolTable
0
ENDTAB
0
TABLE
2
LTYPE
5
5
100
AcDbSymbolTable
0
LTYPE
5
14
100
AcDbSymbolTableRecord
100
AcDbLinetypeTableRecord
2
BYBLOCK
70
0
0
LTYPE
5
15
100
AcDbSymbolTableRecord
100
AcDbLinetypeTableRecord
2
BYLAYER
70
0
0
ENDTAB
0
TABLE
2
LAYER
5
2
100
AcDbSymbolTable
70
2
0
LAYER
5
50
100
AcDbSymbolTableRecord
100
AcDbLayerTableRecord
2
0
70
0
6
CONTINUOUS
0
ENDTAB
0
TABLE
2
STYLE
5
3
100
AcDbSymbolTable
70
1
0
STYLE
5
11
100
AcDbSymbolTableRecord
100
AcDbTextStyleTableRecord
2
STANDARD
70
0
0
ENDTAB
0
TABLE
2
VIEW
5
6
100
AcDbSymbolTable
70
0
0
ENDTAB
0
TABLE
2
UCS
5
7
100
AcDbSymbolTable
70
0
0
ENDTAB
0
TABLE
2
APPID
5
9
100
AcDbSymbolTable
70
2
0
APPID
5
12
100
AcDbSymbolTableRecord
100
AcDbRegAppTableRecord
2
ACAD
70
0
0
ENDTAB
0
TABLE
2
DIMSTYLE
5
A
100
AcDbSymbolTable
70
1
0
ENDTAB
0
TABLE
2
BLOCK_RECORD
5
1
100
AcDbSymbolTable
70
1
0
BLOCK_RECORD
5
1F
100
AcDbSymbolTableRecord
100
AcDbBlockTableRecord
2
*MODEL_SPACE
0
BLOCK_RECORD
5
1B
100
AcDbSymbolTableRecord
100
AcDbBlockTableRecord
2
*PAPER_SPACE
0
ENDTAB
0
ENDSEC
0
SECTION
2
BLOCKS
0
BLOCK
5
20
100
AcDbEntity
100
AcDbBlockBegin
2
*MODEL_SPACE
0
ENDBLK
5
21
100
AcDbEntity
100
AcDbBlockEnd
0
BLOCK
5
1C
100
AcDbEntity
100
AcDbBlockBegin
2
*PAPER_SPACE
0
ENDBLK
5
1D
100
AcDbEntity
100
AcDbBlockEnd
0
ENDSEC
0
SECTION
2
ENTITIES
0
LWPOLYLINE
5
100
100
AcDbEntity
8
0
100
AcDbPolyline
90
40
70
1
43
0.0
10
-2.7053453947367716
20
0.16054372448399987
42
-0.56833912902862593
10
-2.6684374999999108
20
0.13856186735289425
10
-2.6684374999997722
20
0.095000000000095397
10
-2.7722563976375669
20
0.094999999999999793
42
2.4142135623730976
10
-2.7771776574800868
20
0.090078740157480047
10
-2.7771776574800868
20
-0.12500000000000025
10
-3.4728223425196383
20
-0.12500000000000022
10
-3.4728223425196383
20
0.090078740157480422
42
2.4142135623730976
10
-3.4777436023621573
20
0.094999999999999821
10
-3.5815624999999529
20
0.094999999999995824
10
-3.5815624999999955
20
0.40612264553787852
42
-0.56833912902942563
10
-3.5446546052631542
20
0.42810450266907801
42
1.6790162230862906
10
-3.5446546052631627
20
0.59296843115304398
42
-0.56833912902943218
10
-3.5815625000000044
20
0.61495028828423937
10
-3.5815625000000004
20
0.70963480117489353
42
-0.56833912902937866
10
-3.5446546052631582
20
0.73161665830608802
42
1.6265391133562901
10
-3.539949019668827
20
0.8988609938596881
42
-0.6053550660401672
10
-3.5752568108610654
20
0.92561825625779193
42
-0.071828064809994638
10
-3.5354704705803961
20
1.0499082519251122
42
-0.61063912880307036
10
-3.4910017485387157
20
1.0508499442971362
42
1.4475904522471277
10
-3.3762285766048978
20
1.1834399231565509
42
-0.61063912880308135
10
-3.3816694336645927
20
1.2275845842040658
42
-0.072325253848906215
10
-3.2635037205333899
20
1.2850471650346287
42
-0.61063912880306104
10
-3.2321405407293851
20
1.2535082212170985
42
1.4475904522468799
10
-3.0569766917480039
20
1.2619111671125351
42
-0.61063912880300086
10
-3.0287765525935333
20
1.2963074776154373
42
-0.072325253848873963
10
-2.9056529392942179
20
1.2504200086983328
42
-0.61063912880300508
10
-2.9068431281270568
20
1.205957243657394
42
1.4475904522467915
10
-2.7799050162401131
20
1.0849626188169788
42
-0.61063912880305182
10
-2.7355503543137858
20
1.0882819545856066
42
-0.072325253848907214
10
-2.6838159036137714
20
0.96749855106392002
42
-0.61063912880303195
10
-2.716821443256574
20
0.93768264293703352
42
1.5572323041607368
10
-2.7053453947368391
20
0.76756803575801857
42
-0.56833912902942885
10
-2.6684374999999951
20
0.74558617862682286
10
-2.6684374999999987
20
0.65090166573616892
42
-0.56833912902937411
10
-2.7053453947368409
20
0.62891980860497454
42
1.6790162230861998
10
-2.7053453947368502
20
0.46405588012100463
42
-0.5683391290293367
10
-2.6684375000000098
20
0.44207402298981002
10
-2.6684375000000018
20
0.34738951009912628
42
-0.56833912902941797
10
-2.705345394736844
20
0.3254076529679289
42
1.6790162230870782
0
SPLINE
5
101
100
AcDbEntity
8
0
100
AcDbSpline
70
0
71
3
72
41
73
37
74
0
42
0.000000001
43
0.0000000001
44
0.0000000001
40
0.074952032343693686
40
0.074952032343693686
40
0.074952032343693686
40
0.074952032343693686
40
0.092590081379823969
40
0.092590081379823969
40
0.11110947742072817
40
0.11110947742072817
40
0.12962326727323803
40
0.12962326727323803
40
0.14813239184216528
40
0.14813239184216528
40
0.16664151641109254
40
0.16664151641109254
40
0.18515530626360238
40
0.18515530626360238
40
0.20367470230450657
40
0.20367470230450657
40
0.22219867807649329
40
0.22219867807649329
40
0.24072260302441742
40
0.24072260302441742
40
0.25924188146725752
40
0.25924188146725752
40
0.27775561187019943
40
0.27775561187019943
40
0.29626478368433057
40
0.29626478368433057
40
0.29626478368433057
40
0.31477395549846171
40
0.31477395549846171
40
0.33328768590140356
40
0.33328768590140356
40
0.35180696434424363
40
0.35180696434424363
40
0.37033088929216779
40
0.37033088929216779
40
0.37121681602802425
40
0.37121681602802425
40
0.37121681602802425
40
0.37121681602802425
10
-3.3444730373203488
20
0.019681901387271751
30
0
10
-3.3421214459252755
20
0.019629795699265856
30
0
10
-3.3394251470662613
20
0.019071645255168489
30
0
10
-3.3350410887432917
20
0.017256228920389156
30
0
10
-3.3326158806572272
20
0.015636355503239857
30
0
10
-3.3291788289512465
20
0.012200331991068901
30
0
10
-3.3275586162754371
20
0.0097764124027309093
30
0
10
-3.3256988339449611
20
0.0052877944285192871
30
0
10
-3.3251299801390117
20
0.0024290189723001655
30
0
10
-3.3251299801390117
20
-0.0024290189723001655
30
0
10
-3.3256988339449611
20
-0.0052877944285192871
30
0
10
-3.3275586162754371
20
-0.0097764124027309093
30
0
10
-3.3291788289512465
20
-0.012200331991068901
30
0
10
-3.3326158806572272
20
-0.015636355503239857
30
0
10
-3.3350410887432917
20
-0.017256228920389156
30
0
10
-3.3395325649015533
20
-0.019116126436409722
30
0
10
-3.3423937131881534
20
-0.019685039370079017
30
0
10
-3.3472556424164881
20
-0.019685039370079017
30
0
10
-3.3501167830254097
20
-0.019116128864495638
30
0
10
-3.3546082363969036
20
-0.017256234091712203
30
0
10
-3.3570334253205569
20
-0.015636365327923656
30
0
10
-3.3604704505166363
20
-0.012200348161547161
30
0
10
-3.3620906487102733
20
-0.0097764301540005719
30
0
10
-3.3639504191726597
20
-0.005287808996121573
30
0
10
-3.3645192690517205
20
-0.0024290251724581519
30
0
10
-3.3645192690517205
20
8.1147902648788706e-32
30
0
10
-3.3645192690517205
20
0.0024290251724581519
30
0
10
-3.3639504191726597
20
0.005287808996121573
30
0
10
-3.3620906487102733
20
0.0097764301540005719
30
0
10
-3.3604704505166363
20
0.012200348161547161
30
0
10
-3.3570334253205569
20
0.015636365327923656
30
0
10
-3.3546082363969036
20
0.017256234091712203
30
0
10
-3.3501167830254097
20
0.019116128864495638
30
0
10
-3.3472556424164881
20
0.019685039370079017
30
0
10
-3.3447084177860704
20
0.019685039370079017
30
0
10
-3.3445911704741831
20
0.019683738083307409
30
0
10
-3.3444730373203488
20
0.019681901387271751
30
0
0
SPLINE
5
102
100
AcDbEntity
8
0
100
AcDbSpline
70
0
71
3
72
41
73
37
74
0
42
0.000000001
43
0.0000000001
44
0.0000000001
40
0.074974107124787248
40
0.074974107124787248
40
0.074974107124787248
40
0.074974107124787248
40
0.092591540250924476
40
0.092591540250924476
40
0.11111129721345826
40
0.11111129721345826
40
0.12962517360451917
40
0.12962517360451917
40
0.14813415567237559
40
0.14813415567237559
40
0.16664313774023201
40
0.16664313774023201
40
0.18515701413129293
40
0.18515701413129293
40
0.2036767710938267
40
0.2036767710938267
40
0.22220133051702839
40
0.22220133051702839
40
0.24072583534847838
40
0.24072583534847838
40
0.25924546599573034
40
0.25924546599573034
40
0.27775927853104704
40
0.27775927853104704
40
0.29626831134475112
40
0.29626831134475112
40
0.29626831134475112
40
0.31477734415845521
40
0.31477734415845521
40
0.33329115669377196
40
0.33329115669377196
40
0.35181078734102389
40
0.35181078734102389
40
0.37033529217247391
40
0.37033529217247391
40
0.37124241846953837
40
0.37124241846953837
40
0.37124241846953837
40
0.37124241846953837
10
-3.2656850524624259
20
0.019681748324617349
30
0
10
-3.2633353854612031
20
0.019628454491041888
30
0
10
-3.260642904806784
20
0.019070573077543878
30
0
10
-3.2562612933888757
20
0.017256195439096664
30
0
10
-3.253836024495985
20
0.015636310727679795
30
0
10
-3.2503989060484866
20
0.012200270919579459
30
0
10
-3.2487786653924915
20
0.0097763536417926535
30
0
10
-3.2469188634069739
20
0.005287751760978252
30
0
10
-3.2463500041457629
20
0.0024290002713722326
30
0
10
-3.2463500041457629
20
-0.0024290002713722326
30
0
10
-3.2469188634069739
20
-0.005287751760978252
30
0
10
-3.2487786653924915
20
-0.0097763536417926535
30
0
10
-3.2503989060484866
20
-0.012200270919579459
30
0
10
-3.253836024495985
20
-0.015636310727679795
30
0
10
-3.2562612933888757
20
-0.017256195439096664
30
0
10
-3.2607528932959537
20
-0.019116118114792285
30
0
10
-3.2636141336408477
20
-0.019685039370078931
30
0
10
-3.2684762155640299
20
-0.019685039370079104
30
0
10
-3.2713374476620731
20
-0.01911612072284289
30
0
10
-3.275829023093217
20
-0.017256200993615137
30
0
10
-3.2782542714032297
20
-0.015636321280376297
30
0
10
-3.2816913613758278
20
-0.012200288288295537
30
0
10
-3.2833115864762918
20
-0.0097763727083460331
30
0
10
-3.2851713757141581
20
-0.0052877674079974245
30
0
10
-3.2857402307574817
20
-0.0024290069309322957
30
0
10
-3.2857402307574817
20
8.1147902648788706e-32
30
0
10
-3.2857402307574817
20
0.0024290069309322957
30
0
10
-3.2851713757141581
20
0.0052877674079974245
30
0
10
-3.2833115864762918
20
0.0097763727083460331
30
0
10
-3.2816913613758278
20
0.012200288288295537
30
0
10
-3.2782542714032297
20
0.015636321280376297
30
0
10
-3.275829023093217
20
0.017256200993615137
30
0
10
-3.2713374476620731
20
0.01911612072284289
30
0
10
-3.2684762155640299
20
0.019685039370079104
30
0
10
-3.2659261327387656
20
0.019685039370079014
30
0
10
-3.2658060557058488
20
0.019683675126563469
30
0
10
-3.2656850524624259
20
0.019681748324617349
30
0
0
SPLINE
5
103
100
AcDbEntity
8
0
100
AcDbSpline
70
0
71
3
72
41
73
37
74
0
42
0.000000001
43
0.0000000001
44
0.0000000001
40
0.07502165986538617
40
0.07502165986538617
40
0.07502165986538617
40
0.07502165986538617
40
0.092594797400426893
40
0.092594797400426893
40
0.11111536063527007
40
0.11111536063527007
40
0.12962943044503381
40
0.12962943044503381
40
0.14813809418451501
40
0.14813809418451501
40
0.16664675792399625
40
0.16664675792399625
40
0.18516082773375997
40
0.18516082773375997
40
0.20368139096860316
40
0.20368139096860316
40
0.222207253800034
40
0.222207253800034
40
0.2407330533089006
40
0.2407330533089006
40
0.25925347002840704
40
0.25925347002840704
40
0.27776746577245748
40
0.27776746577245748
40
0.29627618836903002
40
0.29627618836903002
40
0.29627618836903002
40
0.31478491096560257
40
0.31478491096560257
40
0.33329890670965301
40
0.33329890670965301
40
0.3518193234291595
40
0.3518193234291595
40
0.37034512293802607
40
0.37034512293802607
40
0.37129784823441619
40
0.37129784823441619
40
0.37129784823441619
40
0.37129784823441619
10
-3.108101810869949
20
0.019681406586073171
30
0
10
-3.1057562924379889
20
0.019625566668231283
30
0
10
-3.1030720114958434
20
0.019068266331558406
30
0
10
-3.0986956530649241
20
0.017256120664177709
30
0
10
-3.0962702483362432
20
0.015636210720269546
30
0
10
-3.0928329807784594
20
0.012200134506077659
30
0
10
-3.091212677600566
20
0.0097762223830814097
30
0
10
-3.0893528316906655
20
0.0052876564459051955
30
0
10
-3.0887839602363267
20
0.0024289584959949107
30
0
10
-3.0887839602363267
20
-0.0024289584959949107
30
0
10
-3.0893528316906655
20
-0.0052876564459051955
30
0
10
-3.091212677600566
20
-0.0097762223830814097
30
0
10
-3.0928329807784594
20
-0.012200134506077659
30
0
10
-3.0962702483362432
20
-0.015636210720269546
30
0
10
-3.0986956530649241
20
-0.017256120664177709
30
0
10
-3.1031875293644542
20
-0.019116099526305171
30
0
10
-3.1060489752926159
20
-0.019685039370078667
30
0
10
-3.1109113981719201
20
-0.019685039370078667
30
0
10
-3.1137728345342932
20
-0.019116102551371233
30
0
10
-3.1182646824436282
20
-0.017256127106597449
30
0
10
-3.1206900632978387
20
-0.015636222959845451
30
0
10
-3.124127297827358
20
-0.012200154651232347
30
0
10
-3.1257475829625418
20
-0.0097762444972421467
30
0
10
-3.1276074140866985
20
-0.0052876745940232369
30
0
10
-3.128176280648868
20
-0.0024289662200226423
30
0
10
-3.128176280648868
20
8.1147902648788706e-32
30
0
10
-3.128176280648868
20
0.0024289662200226423
30
0
10
-3.1276074140866985
20
0.0052876745940232369
30
0
10
-3.1257475829625418
20
0.0097762444972421467
30
0
10
-3.124127297827358
20
0.012200154651232347
30
0
10
-3.1206900632978387
20
0.015636222959845451
30
0
10
-3.1182646824436282
20
0.017256127106597449
30
0
10
-3.1137728345342932
20
0.019116102551371233
30
0
10
-3.1109113981719201
20
0.019685039370078667
30
0
10
-3.1083551613208367
20
0.019685039370078667
30
0
10
-3.1082289939187433
20
0.019683534687633848
30
0
10
-3.108101810869949
20
0.019681406586073171
30
0
0
SPLINE
5
104
100
AcDbEntity
8
0
100
AcDbSpline
70
0
71
3
72
41
73
37
74
0
42
0.000000001
43
0.0000000001
44
0.0000000001
40
0.074997287862552275
40
0.074997287862552275
40
0.074997287862552275
40
0.074997287862552275
40
0.09259310851748781
40
0.09259310851748781
40
0.11111325360939139
40
0.11111325360939139
40
0.12962722309316801
40
0.12962722309316801
40
0.14813605192026519
40
0.14813605192026519
40
0.16664488074736236
40
0.16664488074736236
40
0.18515885023113898
40
0.18515885023113898
40
0.20367899532304257
40
0.20367899532304257
40
0.22220418226278274
40
0.22220418226278274
40
0.24072931046115958
40
0.24072931046115958
40
0.25924931963698411
40
0.25924931963698411
40
0.27776322041231577
40
0.27776322041231577
40
0.29627210384053038
40
0.29627210384053038
40
0.29627210384053038
40
0.31478098726874498
40
0.31478098726874498
40
0.33329488804407664
40
0.33329488804407664
40
0.35181489721990117
40
0.35181489721990117
40
0.37034002541827804
40
0.37034002541827804
40
0.37126939170308265
40
0.37126939170308265
40
0.37126939170308265
40
0.37126939170308265
10
-3.1868947035713
20
0.019681583783273424
30
0
10
-3.1845470583670488
20
0.019627046518710146
30
0
10
-3.1818585791775016
20
0.019069448103418794
30
0
10
-3.1774795315318594
20
0.017256159440021575
30
0
10
-3.1750541972489552
20
0.015636262582324176
30
0
10
-3.1716170070241225
20
0.012200205249156488
30
0
10
-3.1699967362736214
20
0.009776290453975281
30
0
10
-3.1681369131462493
20
0.0052877058773084656
30
0
10
-3.167568048016518
20
0.0024289801610363751
30
0
10
-3.167568048016518
20
-0.0024289801610363751
30
0
10
-3.1681369131462493
20
-0.0052877058773084656
30
0
10
-3.1699967362736214
20
-0.009776290453975281
30
0
10
-3.1716170070241225
20
-0.012200205249156488
30
0
10
-3.1750541972489552
20
-0.015636262582324176
30
0
10
-3.1774795315318594
20
-0.017256159440021575
30
0
10
-3.1819712644998308
20
-0.019116109166290342
30
0
10
-3.1848326038214916
20
-0.019685039370079017
30
0
10
-3.1896948499026094
20
-0.019685039370079017
30
0
10
-3.1925561803505511
20
-0.019116111972543971
30
0
10
-3.1970478869821997
20
-0.017256165416557095
30
0
10
-3.1994731991177803
20
-0.015636273936789759
30
0
10
-3.2029103587035559
20
-0.012200223937506124
30
0
10
-3.2045306127163933
20
-0.0097763109690548848
30
0
10
-3.2063904221274231
20
-0.0052877227130966511
30
0
10
-3.2069592827187843
20
-0.0024289873265373493
30
0
10
-3.2069592827187843
20
8.1147902648788706e-32
30
0
10
-3.2069592827187843
20
0.0024289873265373493
30
0
10
-3.2063904221274231
20
0.0052877227130966511
30
0
10
-3.2045306127163933
20
0.0097763109690548848
30
0
10
-3.2029103587035559
20
0.012200223937506124
30
0
10
-3.1994731991177803
20
0.015636273936789759
30
0
10
-3.1970478869821997
20
0.017256165416557095
30
0
10
-3.1925561803505511
20
0.019116111972543971
30
0
10
-3.1896948499026094
20
0.019685039370079017
30
0
10
-3.1871417666371
20
0.019685039370079017
30
0
10
-3.1870187197992856
20
0.019683607486796442
30
0
10
-3.1868947035713
20
0.019681583783273424
30
0
0
SPLINE
5
105
100
AcDbEntity
8
0
100
AcDbSpline
70
0
71
3
72
41
73
37
74
0
42
0.000000001
43
0.0000000001
44
0.0000000001
40
0.075021659901459981
40
0.075021659901459981
40
0.075021659901459981
40
0.075021659901459981
40
0.092594797436502452
40
0.092594797436502452
40
0.1111153606713455
40
0.1111153606713455
40
0.12962943048110923
40
0.12962943048110923
40
0.14813809422059043
40
0.14813809422059043
40
0.16664675796007186
40
0.16664675796007186
40
0.18516082776983558
40
0.18516082776983558
40
0.20368139100467864
40
0.20368139100467864
40
0.22220725383610954
40
0.22220725383610954
40
0.24073305334497613
40
0.24073305334497613
40
0.25925347006448257
40
0.25925347006448257
40
0.27776746580853307
40
0.27776746580853307
40
0.29627618840510561
40
0.29627618840510561
40
0.29627618840510561
40
0.31478753749471533
40
0.31478753749471533
40
0.3333041616800288
40
0.3333041616800288
40
0.35182195193350524
40
0.35182195193350524
40
0.37034512301017719
40
0.37034512301017719
40
0.37129784830656559
40
0.37129784830656559
40
0.37129784830656559
40
0.37129784830656559
10
-3.108101810869949
20
0.09842156406638812
30
0
10
-3.1057562924379898
20
0.098365724148546316
30
0
10
-3.1030720114958439
20
0.097808423811873421
30
0
10
-3.0986956530649241
20
0.095996278144492658
30
0
10
-3.0962702483362432
20
0.094376368200584551
30
0
10
-3.0928329807784594
20
0.090940291986392682
30
0
10
-3.091212677600566
20
0.08851637986339643
30
0
10
-3.0893528316906655
20
0.084027813926220232
30
0
10
-3.0887839602363267
20
0.081169115976309936
30
0
10
-3.0887839602363267
20
0.076311198984320081
30
0
10
-3.0893528316906655
20
0.07345250103440977
30
0
10
-3.091212677600566
20
0.068963935097233517
30
0
10
-3.0928329807784594
20
0.066540022974237278
30
0
10
-3.0962702483362432
20
0.06310394676004541
30
0
10
-3.0986956530649241
20
0.061484036816137309
30
0
10
-3.1031875293644542
20
0.059624057954009844
30
0
10
-3.1060489752926159
20
0.059055118110236268
30
0
10
-3.1109113981719201
20
0.059055118110236268
30
0
10
-3.1137728345342932
20
0.059624054928943702
30
0
10
-3.1182646824436282
20
0.061484030373717483
30
0
10
-3.1206900632978387
20
0.063103934520469487
30
0
10
-3.124127297827358
20
0.066540002829082595
30
0
10
-3.1257475829625418
20
0.068963912983072792
30
0
10
-3.1276074140866985
20
0.073452482886291692
30
0
10
-3.128176280648868
20
0.076311191260292302
30
0
10
-3.128176280648868
20
0.078740157480314932
30
0
10
-3.128176280648868
20
0.081169468384463192
30
0
10
-3.1276072545569455
20
0.084028566742703231
30
0
10
-3.1257469120642303
20
0.08851767123237203
30
0
10
-3.1241261964943372
20
0.090941791537539174
30
0
10
-3.1206885831747861
20
0.09437748125247096
30
0
10
-3.1182634124651676
20
0.095996955310036228
30
0
10
-3.1137720992776683
20
0.097856419525512287
30
0
10
-3.1109110532333117
20
0.098425196850393609
30
0
10
-3.1083551613208367
20
0.098425196850393609
30
0
10
-3.1082289939187433
20
0.098423692167948773
30
0
10
-3.108101810869949
20
0.09842156406638812
30
0
0
SPLINE
5
106
100
AcDbEntity
8
0
100
AcDbSpline
70
0
71
3
72
41
73
37
74
0
42
0.000000001
43
0.0000000001
44
0.0000000001
40
0.074997286552622444
40
0.074997286552622444
40
0.074997286552622444
40
0.074997286552622444
40
0.092590576949473244
40
0.092590576949473244
40
0.11110819227781168
40
0.11110819227781168
40
0.12962469335459884
40
0.12962469335459884
40
0.14813605195424023
40
0.14813605195424023
40
0.16664488078133743
40
0.16664488078133743
40
0.18515885026511406
40
0.18515885026511406
40
0.20367899535701775
40
0.20367899535701775
40
0.22220418229675792
40
0.22220418229675792
40
0.24072931049513477
40
0.24072931049513477
40
0.25924931967095932
40
0.25924931967095932
40
0.27776322044629098
40
0.27776322044629098
40
0.29627210387450559
40
0.29627210387450559
40
0.29627210387450559
40
0.31478098730272019
40
0.31478098730272019
40
0.33329488807805185
40
0.33329488807805185
40
0.35181489725387638
40
0.35181489725387638
40
0.3703400254522532
40
0.3703400254522532
40
0.37126939042712803
40
0.37126939042712803
40
0.37126939042712803
40
0.37126939042712803
10
-3.186894703571455
20
0.098421741263591309
30
0
10
-3.1845473896057337
20
0.098367211680486247
30
0
10
-3.1818592850203764
20
0.097809765247850247
30
0
10
-3.1774807547148169
20
0.095996962938495883
30
0
10
-3.1750556228380722
20
0.094377480333126929
30
0
10
-3.1716180677818486
20
0.090941787650767894
30
0
10
-3.1699973824572587
20
0.08851767044540633
30
0
10
-3.1681370667996327
20
0.08402857097236438
30
0
10
-3.167568048016518
20
0.081169469632498936
30
0
10
-3.167568048016518
20
0.076311177319278639
30
0
10
-3.1681369131462493
20
0.073452451603006563
30
0
10
-3.1699967362736214
20
0.068963867026339734
30
0
10
-3.1716170070241225
20
0.06653995223115855
30
0
10
-3.1750541972489552
20
0.063103894897990842
30
0
10
-3.1774795315318594
20
0.061483998040293364
30
0
10
-3.1819712644998308
20
0.05962404831402459
30
0
10
-3.1848326038214916
20
0.059055118110235921
30
0
10
-3.1896948499026094
20
0.059055118110235921
30
0
10
-3.1925561803505511
20
0.059624045507770965
30
0
10
-3.1970478869821997
20
0.06148399206375784
30
0
10
-3.1994731991177803
20
0.063103883543525183
30
0
10
-3.2029103587035559
20
0.066539933542808807
30
0
10
-3.2045306127163933
20
0.068963846511260057
30
0
10
-3.2063904221274231
20
0.073452434767218286
30
0
10
-3.2069592827187843
20
0.076311170153777586
30
0
10
-3.2069592827187843
20
0.078740157480314932
30
0
10
-3.2069592827187843
20
0.081169144806852278
30
0
10
-3.2063904221274231
20
0.084027880193411592
30
0
10
-3.2045306127163933
20
0.08851646844936982
30
0
10
-3.2029103587035559
20
0.090940381417821056
30
0
10
-3.1994731991177803
20
0.094376431417104695
30
0
10
-3.1970478869821997
20
0.09599632289687203
30
0
10
-3.1925561803505511
20
0.097856269452858899
30
0
10
-3.1896948499026094
20
0.098425196850393956
30
0
10
-3.1871417668090065
20
0.098425196850393956
30
0
10
-3.1870187199601907
20
0.098423764966453914
30
0
10
-3.186894703571455
20
0.098421741263591309
30
0
0
SPLINE
5
107
100
AcDbEntity
8
0
100
AcDbSpline
70
0
71
3
72
41
73
37
74
0
42
0.000000001
43
0.0000000001
44
0.0000000001
40
0.074974107154085257
40
0.074974107154085257
40
0.074974107154085257
40
0.074974107154085257
40
0.092591540280557896
40
0.092591540280557896
40
0.11111129724309157
40
0.11111129724309157
40
0.12962517363415266
40
0.12962517363415266
40
0.14813415570200886
40
0.14813415570200886
40
0.16664313776986547
40
0.16664313776986547
40
0.18515701416092639
40
0.18515701416092639
40
0.20367677112346005
40
0.20367677112346005
40
0.2222013305466618
40
0.2222013305466618
40
0.24072583537811179
40
0.24072583537811179
40
0.25924546602536391
40
0.25924546602536391
40
0.27775927856068044
40
0.27775927856068044
40
0.29626831137438453
40
0.29626831137438453
40
0.29626831137438453
40
0.3147797242408879
40
0.3147797242408879
40
0.33329591842900808
40
0.33329591842900808
40
0.35181316904528237
40
0.35181316904528237
40
0.37033529223174072
40
0.37033529223174072
40
0.37124241852846979
40
0.37124241852846979
40
0.37124241852846979
40
0.37124241852846979
10
-3.26568505246256
20
0.098421905804934776
30
0
10
-3.2633353854613056
20
0.098368611971378084
30
0
10
-3.2606429048068244
20
0.097810730557875661
30
0
10
-3.2562612933888757
20
0.095996352919411609
30
0
10
-3.253836024495985
20
0.094376468207994807
30
0
10
-3.2503989060484866
20
0.090940428399894468
30
0
10
-3.2487786653924915
20
0.088516511122107608
30
0
10
-3.2469188634069739
20
0.084027909241293205
30
0
10
-3.2463500041457629
20
0.081169157751687232
30
0
10
-3.2463500041457629
20
0.07631115720894277
30
0
10
-3.2469188634069739
20
0.0734524057193367
30
0
10
-3.2487786653924915
20
0.068963803838522283
30
0
10
-3.2503989060484866
20
0.066539886560735478
30
0
10
-3.253836024495985
20
0.063103846752635154
30
0
10
-3.2562612933888757
20
0.061483962041218365
30
0
10
-3.2607528932959537
20
0.059624039365522734
30
0
10
-3.2636141336408477
20
0.059055118110236005
30
0
10
-3.2684762155640299
20
0.059055118110235831
30
0
10
-3.2713374476620731
20
0.059624036757472049
30
0
10
-3.275829023093217
20
0.061483956486699805
30
0
10
-3.2782542714032297
20
0.063103836199938715
30
0
10
-3.2816913613758278
20
0.066539869192019471
30
0
10
-3.2833115864762918
20
0.068963784771968933
30
0
10
-3.2851713757141581
20
0.073452390072317505
30
0
10
-3.2857402307574817
20
0.076311150549382645
30
0
10
-3.2857402307574817
20
0.078740157480314932
30
0
10
-3.2857402307574817
20
0.081169476754134287
30
0
10
-3.2851712311593313
20
0.084028590625682673
30
0
10
-3.2833109785557957
20
0.088517680342038718
30
0
10
-3.2816903634358074
20
0.090941786348197495
30
0
10
-3.2782529302347982
20
0.094377476273060576
30
0
10
-3.2758278723456336
20
0.09599696625051525
30
0
10
-3.271336781441696
20
0.097856422728478096
30
0
10
-3.2684759030121935
20
0.098425196850394039
30
0
10
-3.2659261327388096
20
0.098425196850393956
30
0
10
-3.2658060557059376
20
0.098423832606879424
30
0
10
-3.26568505246256
20
0.098421905804934776
30
0
0
SPLINE
5
108
100
AcDbEntity
8
0
100
AcDbSpline
70
0
71
3
72
41
73
37
74
0
42
0.000000001
43
0.0000000001
44
0.0000000001
40
0.2213127513409256
40
0.2213127513409256
40
0.2213127513409256
40
0.2213127513409256
40
0.22219867807649346
40
0.22219867807649346
40
0.24072260302441761
40
0.24072260302441761
40
0.25924188146725768
40
0.25924188146725768
40
0.27775561187019959
40
0.27775561187019959
40
0.29626478368433073
40
0.29626478368433073
40
0.29626478368433073
40
0.31477395549846188
40
0.31477395549846188
40
0.33328768590140379
40
0.33328768590140379
40
0.35180696434424386
40
0.35180696434424386
40
0.37033088929216795
40
0.37033088929216795
40
0.38885486506415473
40
0.38885486506415473
40
0.40737426110505892
40
0.40737426110505892
40
0.42588805095756899
40
0.42588805095756899
40
0.44439717552649605
40
0.44439717552649605
40
0.46290630009542327
40
0.46290630009542327
40
0.48142008994793328
40
0.48142008994793328
40
0.49993948598883753
40
0.49993948598883753
40
0.51757753502525627
40
0.51757753502525627
40
0.51757753502525627
40
0.51757753502525627
10
-3.3444730373204647
20
0.098422058867588758
30
0
10
-3.3445911704742608
20
0.098423895563623201
30
0
10
-3.3447084177861086
20
0.098425196850393956
30
0
10
-3.3472556424164881
20
0.098425196850393956
30
0
10
-3.3501167830254097
20
0.097856286344810584
30
0
10
-3.3546082363969036
20
0.095996391572027148
30
0
10
-3.3570334253205569
20
0.094376522808238592
30
0
10
-3.3604704505166363
20
0.090940505641862096
30
0
10
-3.3620906487102733
20
0.088516587634315511
30
0
10
-3.3639504191726597
20
0.084027966476436511
30
0
10
-3.3645192690517205
20
0.081169182652773092
30
0
10
-3.3645192690517205
20
0.078740157480314932
30
0
10
-3.3645192690517205
20
0.076311132307856785
30
0
10
-3.3639504191726597
20
0.073452348484193367
30
0
10
-3.3620906487102733
20
0.068963727326314367
30
0
10
-3.3604704505166363
20
0.066539809318767781
30
0
10
-3.3570334253205569
20
0.063103792152391272
30
0
10
-3.3546082363969036
20
0.061483923388602729
30
0
10
-3.3501167830254097
20
0.059624028615819294
30
0
10
-3.3472556424164881
20
0.059055118110235921
30
0
10
-3.3423937131881534
20
0.059055118110235921
30
0
10
-3.3395325649015533
20
0.059624031043905214
30
0
10
-3.3350410887432917
20
0.06148392855992578
30
0
10
-3.3326158806572272
20
0.063103801977075075
30
0
10
-3.3291788289512465
20
0.066539825489246057
30
0
10
-3.3275586162754371
20
0.068963745077584085
30
0
10
-3.3256988339449611
20
0.073452363051795713
30
0
10
-3.3251299801390117
20
0.076311138508014797
30
0
10
-3.3251299801390117
20
0.081169176452615094
30
0
10
-3.3256988339449611
20
0.08402795190883422
30
0
10
-3.3275586162754371
20
0.088516569883045862
30
0
10
-3.3291788289512465
20
0.090940489471383917
30
0
10
-3.3326158806572272
20
0.094376512983554872
30
0
10
-3.3350410887432917
20
0.095996386400704167
30
0
10
-3.3394251470662968
20
0.097811802735497971
30
0
10
-3.3421214459253625
20
0.098369953179599068
30
0
10
-3.3444730373204643
20
0.098422058867588758
30
0
0
LINE
5
109
100
AcDbEntity
8
0
100
AcDbLine
10
-3.5815625000000022
20
0.66229254472956645
30
-4.6386568132347379e-46
11
-3.1815625000000023
21
0.66229254472954868
31
-4.6386568132347379e-46
0
LINE
5
110
100
AcDbEntity
8
0
100
AcDbLine
10
-2.6684375000000053
20
0.39473176654446818
30
-8.1866572616207538e-46
11
-3.0684375000000053
21
0.39473176654443415
31
-8.1866572616207538e-46
0
LINE
5
111
100
AcDbEntity
8
0
100
AcDbLine
10
-2.6684374999999969
20
0.69824392218149578
30
3.2163250796374087e-46
11
-3.0684374999999968
21
0.6982439221815121
31
3.2163250796374087e-46
0
LINE
5
112
100
AcDbEntity
8
0
100
AcDbLine
10
-3.5815625000000155
20
0.3622925447295664
30
-4.6386568132347379e-46
11
-3.1815625000000156
21
0.36229254472954869
31
-4.6386568132347379e-46
0
LINE
5
113
100
AcDbEntity
8
0
100
AcDbLine
10
-2.6684374999997722
20
0.095000000000095397
30
3.8433675992558387e-30
11
-3.0684375000000053
21
0.0949999999988239
31
3.8433675992558387e-30
0
ENDSEC
0
SECTION
2
OBJECTS
0
DICTIONARY
5
C
100
AcDbDictionary
3
ACAD_GROUP
350
D
3
ACAD_MLINESTYLE
350
17
0
DICTIONARY
5
D
100
AcDbDictionary
0
DICTIONARY
5
1A
330
C
100
AcDbDictionary
0
DICTIONARY
5
17
100
AcDbDictionary
0
ENDSEC
0
EOF
