0
SECTION
2
HEADER
9
$INSUNITS
70
1
9
$ACADVER
1
AC1014
9
$HANDSEED
5
FFFF
0
ENDSEC
0
SECTION
2
TABLES
0
TABLE
2
VPORT
5
8
100
AcDbSymbolTable
0
ENDTAB
0
TABLE
2
LTYPE
5
5
100
AcDbSymbolTable
0
LTYPE
5
14
100
AcDbSymbolTableRecord
100
AcDbLinetypeTableRecord
2
BYBLOCK
70
0
0
LTYPE
5
15
100
AcDbSymbolTableRecord
100
AcDbLinetypeTableRecord
2
BYLAYER
70
0
0
ENDTAB
0
TABLE
2
LAYER
5
2
100
AcDbSymbolTable
70
2
0
LAYER
5
50
100
AcDbSymbolTableRecord
100
AcDbLayerTableRecord
2
0
70
0
6
CONTINUOUS
0
ENDTAB
0
TABLE
2
STYLE
5
3
100
AcDbSymbolTable
70
1
0
STYLE
5
11
100
AcDbSymbolTableRecord
100
AcDbTextStyleTableRecord
2
STANDARD
70
0
0
ENDTAB
0
TABLE
2
VIEW
5
6
100
AcDbSymbolTable
70
0
0
ENDTAB
0
TABLE
2
UCS
5
7
100
AcDbSymbolTable
70
0
0
ENDTAB
0
TABLE
2
APPID
5
9
100
AcDbSymbolTable
70
2
0
APPID
5
12
100
AcDbSymbolTableRecord
100
AcDbRegAppTableRecord
2
ACAD
70
0
0
ENDTAB
0
TABLE
2
DIMSTYLE
5
A
100
AcDbSymbolTable
70
1
0
ENDTAB
0
TABLE
2
BLOCK_RECORD
5
1
100
AcDbSymbolTable
70
1
0
BLOCK_RECORD
5
1F
100
AcDbSymbolTableRecord
100
AcDbBlockTableRecord
2
*MODEL_SPACE
0
BLOCK_RECORD
5
1B
100
AcDbSymbolTableRecord
100
AcDbBlockTableRecord
2
*PAPER_SPACE
0
ENDTAB
0
ENDSEC
0
SECTION
2
BLOCKS
0
BLOCK
5
20
100
AcDbEntity
100
AcDbBlockBegin
2
*MODEL_SPACE
0
ENDBLK
5
21
100
AcDbEntity
100
AcDbBlockEnd
0
BLOCK
5
1C
100
AcDbEntity
100
AcDbBlockBegin
2
*PAPER_SPACE
0
ENDBLK
5
1D
100
AcDbEntity
100
AcDbBlockEnd
0
ENDSEC
0
SECTION
2
ENTITIES
0
LWPOLYLINE
5
100
100
AcDbEntity
8
0
100
AcDbPolyline
90
44
70
1
43
0.0
10
-2.7057490836890712
20
0.80628059566588939
42
-0.57446024192967882
10
-2.6684374999999974
20
0.78452226606394027
10
-2.6684375000000098
20
0.67042684110683926
42
-0.62328851701961008
10
-2.6926185344827682
20
0.65856477527384183
42
2.0385179801895976
10
-2.6926185344827549
20
0.51028895236136496
42
-0.62328851701971855
10
-2.6684374999999942
20
0.49842688652836792
10
-2.668437499999992
20
0.36726535466957405
42
-0.6226053745684218
10
-2.6925951647951463
20
0.35538523785619225
42
0.019073274114261098
10
-2.6984374999999927
20
0.35954347828931371
10
-2.6984374999999927
20
0.35921139453287737
42
1.8559214542768594
10
-2.6984374999999945
20
0.20261802182826782
10
-2.698437499999994
20
0.20228593807186604
42
0.019073274114307731
10
-2.6925951647951334
20
0.20644417850499766
42
-0.62260537456777088
10
-2.6684374999999783
20
0.1945640616916485
10
-2.6684374999997718
20
0.095000000000061924
10
-2.7722563976375669
20
0.094999999999999835
42
2.4142135623730825
10
-2.7771776574800864
20
0.090078740157480089
10
-2.7771776574800868
20
-0.12500000000000031
10
-3.4728223425196383
20
-0.12500000000000025
10
-3.4728223425196383
20
0.090078740157480422
42
2.4142135623730825
10
-3.4777436023621582
20
0.094999999999999862
10
-3.5815624999999516
20
0.094999999999993895
10
-3.5815625000000066
20
0.36818362608323979
42
-0.56833912902948436
10
-3.5446546052631627
20
0.39016548321443889
42
1.679016223086605
10
-3.5446546052631729
20
0.55502941169839082
42
-0.56833912902933525
10
-3.5815625000000186
20
0.57701126882957299
10
-3.581562500000055
20
0.67169578172030908
42
-0.56833912902969363
10
-3.5446546052632009
20
0.69367763885150724
42
1.6688154208805024
10
-3.5437673823906963
20
0.85901604879381954
42
-0.58884481306100389
10
-3.580373582803928
20
0.88292744281870372
42
-0.070078854602735358
10
-3.5535619507543141
20
1.0074292564040095
42
-0.61063912880304749
10
-3.5094157240334884
20
1.0128573952063136
42
1.4475904522469638
10
-3.4086207840412239
20
1.1563612751596035
42
-0.61063912880306626
10
-3.4184923519493289
20
1.1997306903225888
42
-0.072325253848902649
10
-3.3067344848489517
20
1.2688339688026076
42
-0.61063912880300741
10
-3.2723463002046893
20
1.2406239212766694
42
1.4475904522467973
10
-3.0989268154513803
20
1.2666751361733193
42
-0.61063912880300997
10
-3.074344840761714
20
1.3037437286054612
42
-0.072325253848885121
10
-2.9472162543536236
20
1.2705261658805336
42
-0.61063912880296389
10
-2.9439096972553727
20
1.2261705494977189
42
1.4475904522467746
10
-2.8054004283996545
20
1.1186151408436233
42
-0.61063912880304505
10
-2.7616078163055486
20
1.1263972453481144
42
-0.072325253848865928
10
-2.69793899570915
20
1.0114565422035806
42
-0.61063912880300908
10
-2.7277644114607877
20
0.97845959386308268
42
1.4886099899488554
0
SPLINE
5
101
100
AcDbEntity
8
0
100
AcDbSpline
70
0
71
3
72
41
73
37
74
0
42
0.000000001
43
0.0000000001
44
0.0000000001
40
0.22125452850364555
40
0.22125452850364555
40
0.22125452850364555
40
0.22125452850364555
40
0.22220725380003559
40
0.22220725380003559
40
0.2407330533089021
40
0.2407330533089021
40
0.25925347002840882
40
0.25925347002840882
40
0.27776746577245881
40
0.27776746577245881
40
0.29627618836903163
40
0.29627618836903163
40
0.29627618836903163
40
0.31478491096560446
40
0.31478491096560446
40
0.33329890670965445
40
0.33329890670965445
40
0.35181932342916117
40
0.35181932342916117
40
0.37034512293802768
40
0.37034512293802768
40
0.38887098576945955
40
0.38887098576945955
40
0.40739154900430219
40
0.40739154900430219
40
0.42590561881406519
40
0.42590561881406519
40
0.44441428255354748
40
0.44441428255354748
40
0.46292294629302955
40
0.46292294629302955
40
0.4814370161027926
40
0.4814370161027926
40
0.49995757933763529
40
0.49995757933763529
40
0.51753071687267715
40
0.51753071687267715
40
0.51753071687267715
40
0.51753071687267715
10
-3.1081018108699481
20
0.019681406586073168
30
2.1854783949314103e-17
10
-3.1082289939187424
20
0.019683534687633848
30
2.1854783949314103e-17
10
-3.1083551613208353
20
0.019685039370078667
30
2.1854783949314103e-17
10
-3.1109113981719196
20
0.019685039370078667
30
2.1854783949314103e-17
10
-3.1137728345342923
20
0.019116102551371229
30
1.9669305554382694e-16
10
-3.1182646824436273
20
0.017256127106597439
30
2.1854783949314103e-17
10
-3.1206900632978378
20
0.015636222959845462
30
2.1854783949314103e-17
10
-3.1241272978273571
20
0.012200154651232401
30
1.9669305554382694e-16
10
-3.1257475829625414
20
0.009776244497242171
30
-1.5298348764519871e-16
10
-3.1276074140866976
20
0.0052876745940232993
30
-1.5298348764519871e-16
10
-3.1281762806488675
20
0.0024289662200226774
30
-1.5298348764519871e-16
10
-3.1281762806488675
20
8.2435964595604773e-32
30
-1.5298348764519871e-16
10
-3.1281762806488675
20
-0.0024289662200226774
30
-1.5298348764519871e-16
10
-3.1276074140866976
20
-0.0052876745940232993
30
-1.5298348764519871e-16
10
-3.1257475829625414
20
-0.009776244497242171
30
-1.5298348764519871e-16
10
-3.1241272978273571
20
-0.012200154651232401
30
1.9669305554382694e-16
10
-3.1206900632978378
20
-0.015636222959845462
30
2.1854783949314103e-17
10
-3.1182646824436273
20
-0.017256127106597439
30
2.1854783949314103e-17
10
-3.1137728345342923
20
-0.019116102551371229
30
1.9669305554382694e-16
10
-3.1109113981719196
20
-0.019685039370078667
30
2.1854783949314103e-17
10
-3.106048975292615
20
-0.019685039370078667
30
2.1854783949314103e-17
10
-3.1031875293644529
20
-0.019116099526305306
30
2.1854783949314103e-17
10
-3.0986956530649237
20
-0.017256120664177657
30
-1.5298348764519871e-16
10
-3.0962702483362423
20
-0.015636210720269657
30
-1.5298348764519871e-16
10
-3.0928329807784585
20
-0.012200134506077905
30
2.1854783949314103e-17
10
-3.0912126776005646
20
-0.0097762223830820082
30
-1.5298348764519871e-16
10
-3.0893528316906642
20
-0.0052876564459057871
30
1.9669305554382694e-16
10
-3.0887839602363267
20
-0.0024289584959950486
30
1.9669305554382694e-16
10
-3.0887839602363267
20
0.0024289584959950217
30
1.9669305554382694e-16
10
-3.0893528316906642
20
0.005287656445905722
30
1.9669305554382694e-16
10
-3.0912126776005646
20
0.0097762223830819249
30
-1.5298348764519871e-16
10
-3.0928329807784585
20
0.012200134506077811
30
2.1854783949314103e-17
10
-3.0962702483362423
20
0.015636210720269585
30
-1.5298348764519871e-16
10
-3.0986956530649237
20
0.01725612066417765
30
-1.5298348764519871e-16
10
-3.1030720114958421
20
0.019068266331558541
30
3.7153132713833977e-16
10
-3.1057562924379876
20
0.019625566668231304
30
2.1854783949314103e-17
10
-3.1081018108699485
20
0.019681406586073182
30
1.9669305554382694e-16
0
SPLINE
5
102
100
AcDbEntity
8
0
100
AcDbSpline
70
0
71
3
72
41
73
37
74
0
42
0.000000001
43
0.0000000001
44
0.0000000001
40
0.22129420421996057
40
0.22129420421996057
40
0.22129420421996057
40
0.22129420421996057
40
0.22220133051702737
40
0.22220133051702737
40
0.24072583534847866
40
0.24072583534847866
40
0.25924546599573006
40
0.25924546599573006
40
0.27775927853104765
40
0.27775927853104765
40
0.29626831134475046
40
0.29626831134475046
40
0.29626831134475046
40
0.31477734415845326
40
0.31477734415845326
40
0.33329115669377085
40
0.33329115669377085
40
0.35181078734102222
40
0.35181078734102222
40
0.37033529217247352
40
0.37033529217247352
40
0.38885985159567382
40
0.38885985159567382
40
0.40737960855820693
40
0.40737960855820693
40
0.42589348494926904
40
0.42589348494926904
40
0.44440246701712571
40
0.44440246701712571
40
0.46291144908498238
40
0.46291144908498238
40
0.48142532547604444
40
0.48142532547604444
40
0.49994508243857755
40
0.49994508243857755
40
0.517562515564711
40
0.517562515564711
40
0.517562515564711
40
0.517562515564711
10
-3.2656850524624246
20
0.019681748324617339
30
-3.2782175923971154e-16
10
-3.2658060557058484
20
0.01968367512656348
30
3.7153132713833977e-16
10
-3.2659261327387656
20
0.019685039370079024
30
2.1854783949314103e-17
10
-3.2684762155640299
20
0.019685039370078924
30
-3.2782175923971154e-16
10
-3.2713374476620736
20
0.019116120722842803
30
2.1854783949314103e-17
10
-3.275829023093217
20
0.017256200993614797
30
2.1854783949314103e-17
10
-3.2782542714032297
20
0.015636321280376075
30
2.1854783949314103e-17
10
-3.2816913613758287
20
0.0122002882882951
30
2.1854783949314103e-17
10
-3.2833115864762918
20
0.0097763727083457416
30
2.1854783949314103e-17
10
-3.285171375714159
20
0.0052877674079971045
30
2.1854783949314103e-17
10
-3.2857402307574826
20
0.0024290069309321266
30
2.1854783949314103e-17
10
-3.2857402307574826
20
8.2435964595604915e-32
30
2.1854783949314103e-17
10
-3.2857402307574826
20
-0.0024290069309321266
30
2.1854783949314103e-17
10
-3.285171375714159
20
-0.0052877674079971045
30
2.1854783949314103e-17
10
-3.2833115864762918
20
-0.0097763727083457416
30
2.1854783949314103e-17
10
-3.2816913613758287
20
-0.0122002882882951
30
2.1854783949314103e-17
10
-3.2782542714032297
20
-0.015636321280376075
30
2.1854783949314103e-17
10
-3.275829023093217
20
-0.017256200993614797
30
2.1854783949314103e-17
10
-3.2713374476620736
20
-0.019116120722842803
30
2.1854783949314103e-17
10
-3.2684762155640299
20
-0.019685039370078924
30
-3.2782175923971154e-16
10
-3.2636141336408477
20
-0.019685039370079111
30
-3.2782175923971154e-16
10
-3.2607528932959546
20
-0.019116118114792306
30
2.1854783949314103e-17
10
-3.2562612933888757
20
-0.017256195439097125
30
2.1854783949314103e-17
10
-3.2538360244959859
20
-0.015636310727679861
30
2.1854783949314103e-17
10
-3.250398906048487
20
-0.012200270919579741
30
1.9669305554382694e-16
10
-3.2487786653924924
20
-0.0097763536417927732
30
-1.5298348764519871e-16
10
-3.2469188634069739
20
-0.005287751760978246
30
2.1854783949314103e-17
10
-3.2463500041457629
20
-0.0024290002713722668
30
-1.5298348764519871e-16
10
-3.2463500041457629
20
0.0024290002713722668
30
-1.5298348764519871e-16
10
-3.2469188634069739
20
0.005287751760978246
30
2.1854783949314103e-17
10
-3.2487786653924924
20
0.0097763536417927732
30
-1.5298348764519871e-16
10
-3.250398906048487
20
0.012200270919579741
30
1.9669305554382694e-16
10
-3.2538360244959859
20
0.015636310727679861
30
2.1854783949314103e-17
10
-3.2562612933888757
20
0.017256195439097125
30
2.1854783949314103e-17
10
-3.2606429048067831
20
0.019070573077543795
30
2.1854783949314103e-17
10
-3.2633353854612022
20
0.019628454491041902
30
3.7153132713833977e-16
10
-3.265685052462425
20
0.019681748324617356
30
3.7153132713833977e-16
0
SPLINE
5
103
100
AcDbEntity
8
0
100
AcDbSpline
70
0
71
3
72
41
73
37
74
0
42
0.000000001
43
0.0000000001
44
0.0000000001
40
0.22127481597797843
40
0.22127481597797843
40
0.22127481597797843
40
0.22127481597797843
40
0.22220418226278152
40
0.22220418226278152
40
0.24072931046115786
40
0.24072931046115786
40
0.25924931963698361
40
0.25924931963698361
40
0.27776322041231549
40
0.27776322041231549
40
0.29627210384052971
40
0.29627210384052971
40
0.29627210384052971
40
0.31478098726874393
40
0.31478098726874393
40
0.33329488804407581
40
0.33329488804407581
40
0.35181489721990156
40
0.35181489721990156
40
0.37034002541827793
40
0.37034002541827793
40
0.38886521235801702
40
0.38886521235801702
40
0.40738535744991955
40
0.40738535744991955
40
0.42589932693369792
40
0.42589932693369792
40
0.44440815576079457
40
0.44440815576079457
40
0.46291698458789121
40
0.46291698458789121
40
0.48143095407166958
40
0.48143095407166958
40
0.49995109916357211
40
0.49995109916357211
40
0.51754691981850809
40
0.51754691981850809
40
0.51754691981850809
40
0.51754691981850809
10
-3.1868947035713004
20
0.019681583783273449
30
-1.5298348764519871e-16
10
-3.1870187197992856
20
0.019683607486796449
30
2.1854783949314103e-17
10
-3.1871417666370991
20
0.019685039370079017
30
2.1854783949314103e-17
10
-3.1896948499026085
20
0.019685039370079017
30
2.1854783949314103e-17
10
-3.1925561803505511
20
0.019116111972544019
30
2.1854783949314103e-17
10
-3.1970478869821992
20
0.017256165416556959
30
2.1854783949314103e-17
10
-3.1994731991177803
20
0.015636273936789815
30
-1.5298348764519871e-16
10
-3.2029103587035559
20
0.012200223937505994
30
2.1854783949314103e-17
10
-3.2045306127163933
20
0.009776310969054753
30
2.1854783949314103e-17
10
-3.2063904221274231
20
0.0052877227130965036
30
2.1854783949314103e-17
10
-3.2069592827187847
20
0.0024289873265372994
30
2.1854783949314103e-17
10
-3.2069592827187847
20
8.2435964595604915e-32
30
2.1854783949314103e-17
10
-3.2069592827187847
20
-0.0024289873265372994
30
2.1854783949314103e-17
10
-3.2063904221274231
20
-0.0052877227130965036
30
2.1854783949314103e-17
10
-3.2045306127163933
20
-0.009776310969054753
30
2.1854783949314103e-17
10
-3.2029103587035559
20
-0.012200223937505994
30
2.1854783949314103e-17
10
-3.1994731991177803
20
-0.015636273936789815
30
-1.5298348764519871e-16
10
-3.1970478869821992
20
-0.017256165416556959
30
2.1854783949314103e-17
10
-3.1925561803505511
20
-0.019116111972544019
30
2.1854783949314103e-17
10
-3.1896948499026085
20
-0.019685039370079017
30
2.1854783949314103e-17
10
-3.1848326038214907
20
-0.019685039370079017
30
2.1854783949314103e-17
10
-3.1819712644998308
20
-0.019116109166290359
30
-1.5298348764519871e-16
10
-3.1774795315318594
20
-0.017256159440021908
30
1.9669305554382694e-16
10
-3.1750541972489557
20
-0.015636262582323996
30
2.1854783949314103e-17
10
-3.1716170070241225
20
-0.012200205249156406
30
1.9669305554382694e-16
10
-3.169996736273621
20
-0.0097762904539753035
30
1.9669305554382694e-16
10
-3.1681369131462493
20
-0.0052877058773083659
30
2.1854783949314103e-17
10
-3.167568048016518
20
-0.0024289801610363057
30
-1.5298348764519871e-16
10
-3.167568048016518
20
0.0024289801610363057
30
-1.5298348764519871e-16
10
-3.1681369131462493
20
0.0052877058773083659
30
2.1854783949314103e-17
10
-3.169996736273621
20
0.0097762904539753035
30
1.9669305554382694e-16
10
-3.1716170070241225
20
0.012200205249156406
30
1.9669305554382694e-16
10
-3.1750541972489557
20
0.015636262582323996
30
2.1854783949314103e-17
10
-3.1774795315318594
20
0.017256159440021908
30
1.9669305554382694e-16
10
-3.1818585791775011
20
0.019069448103418898
30
2.1854783949314103e-17
10
-3.1845470583670488
20
0.019627046518710244
30
-3.2782175923971154e-16
10
-3.1868947035713
20
0.019681583783273737
30
3.7153132713833977e-16
0
SPLINE
5
104
100
AcDbEntity
8
0
100
AcDbSpline
70
0
71
3
72
41
73
37
74
0
42
0.000000001
43
0.0000000001
44
0.0000000001
40
0.22131275134063363
40
0.22131275134063363
40
0.22131275134063363
40
0.22131275134063363
40
0.22219867807649191
40
0.22219867807649191
40
0.24072260302441789
40
0.24072260302441789
40
0.25924188146725818
40
0.25924188146725818
40
0.27775561187019776
40
0.27775561187019776
40
0.2962647836843299
40
0.2962647836843299
40
0.2962647836843299
40
0.31477395549846188
40
0.31477395549846188
40
0.33328768590140145
40
0.33328768590140145
40
0.35180696434424169
40
0.35180696434424169
40
0.37033088929216773
40
0.37033088929216773
40
0.38885486506415201
40
0.38885486506415201
40
0.40737426110505731
40
0.40737426110505731
40
0.42588805095756693
40
0.42588805095756693
40
0.44439717552649471
40
0.44439717552649471
40
0.46290630009542266
40
0.46290630009542266
40
0.48142008994793228
40
0.48142008994793228
40
0.49993948598883764
40
0.49993948598883764
40
0.51757753502496351
40
0.51757753502496351
40
0.51757753502496351
40
0.51757753502496351
10
-3.3444730373203488
20
0.098422058867586704
30
2.1854783949314103e-17
10
-3.3445911704741822
20
0.098423895563622341
30
3.7153132713833977e-16
10
-3.3447084177860704
20
0.098425196850393956
30
2.1854783949314103e-17
10
-3.3472556424164881
20
0.098425196850393956
30
2.1854783949314103e-17
10
-3.3501167830254097
20
0.097856286344810681
30
2.1854783949314103e-17
10
-3.3546082363969036
20
0.09599639157202694
30
-3.2782175923971154e-16
10
-3.3570334253205569
20
0.094376522808238647
30
2.1854783949314103e-17
10
-3.3604704505166354
20
0.090940505641862276
30
2.1854783949314103e-17
10
-3.3620906487102733
20
0.088516587634315552
30
2.1854783949314103e-17
10
-3.3639504191726584
20
0.084027966476436761
30
2.1854783949314103e-17
10
-3.3645192690517196
20
0.081169182652773217
30
2.1854783949314103e-17
10
-3.3645192690517196
20
0.078740157480314932
30
2.1854783949314103e-17
10
-3.3645192690517196
20
0.076311132307856674
30
2.1854783949314103e-17
10
-3.3639504191726584
20
0.073452348484193172
30
2.1854783949314103e-17
10
-3.3620906487102733
20
0.068963727326314408
30
2.1854783949314103e-17
10
-3.3604704505166354
20
0.066539809318767684
30
2.1854783949314103e-17
10
-3.3570334253205569
20
0.063103792152391314
30
2.1854783949314103e-17
10
-3.3546082363969036
20
0.061483923388603035
30
-3.2782175923971154e-16
10
-3.3501167830254097
20
0.059624028615819266
30
2.1854783949314103e-17
10
-3.3472556424164881
20
0.059055118110235921
30
2.1854783949314103e-17
10
-3.3423937131881525
20
0.059055118110235921
30
2.1854783949314103e-17
10
-3.3395325649015533
20
0.059624031043905394
30
2.1854783949314103e-17
10
-3.3350410887432926
20
0.061483928559925613
30
2.1854783949314103e-17
10
-3.3326158806572272
20
0.063103801977074936
30
2.1854783949314103e-17
10
-3.3291788289512461
20
0.066539825489245877
30
2.1854783949314103e-17
10
-3.3275586162754363
20
0.068963745077583807
30
2.1854783949314103e-17
10
-3.3256988339449594
20
0.073452363051795422
30
2.1854783949314103e-17
10
-3.3251299801390113
20
0.076311138508014714
30
2.1854783949314103e-17
10
-3.3251299801390113
20
0.081169176452615191
30
2.1854783949314103e-17
10
-3.3256988339449594
20
0.084027951908834511
30
2.1854783949314103e-17
10
-3.3275586162754363
20
0.088516569883046153
30
2.1854783949314103e-17
10
-3.3291788289512461
20
0.090940489471384098
30
2.1854783949314103e-17
10
-3.3326158806572272
20
0.094376512983555025
30
2.1854783949314103e-17
10
-3.3350410887432926
20
0.095996386400704362
30
2.1854783949314103e-17
10
-3.3394251470662604
20
0.097811802735483247
30
-3.2782175923971154e-16
10
-3.3421214459252737
20
0.098369953179580652
30
2.1854783949314103e-17
10
-3.3444730373203475
20
0.098422058867586704
30
2.1854783949314103e-17
0
SPLINE
5
105
100
AcDbEntity
8
0
100
AcDbSpline
70
0
71
3
72
41
73
37
74
0
42
0.000000001
43
0.0000000001
44
0.0000000001
40
0.2212748159783631
40
0.2212748159783631
40
0.2212748159783631
40
0.2212748159783631
40
0.22220418226278155
40
0.22220418226278155
40
0.24072931046115789
40
0.24072931046115789
40
0.25924931963698356
40
0.25924931963698356
40
0.2777632204123156
40
0.2777632204123156
40
0.29627210384052982
40
0.29627210384052982
40
0.29627210384052982
40
0.31478098726874404
40
0.31478098726874404
40
0.33329488804407592
40
0.33329488804407592
40
0.35181489721990156
40
0.35181489721990156
40
0.37034002541827793
40
0.37034002541827793
40
0.38886521235801708
40
0.38886521235801708
40
0.40738535744991961
40
0.40738535744991961
40
0.42589932693369797
40
0.42589932693369797
40
0.44440815576079462
40
0.44440815576079462
40
0.46291698458789149
40
0.46291698458789149
40
0.48143095407166969
40
0.48143095407166969
40
0.49995109916357228
40
0.49995109916357228
40
0.51754691981889289
40
0.51754691981889289
40
0.51754691981889289
40
0.51754691981889289
10
-3.1868947035714545
20
0.098421741263591295
30
-1.5298348764519871e-16
10
-3.1870187197993878
20
0.098423764967112581
30
-1.5298348764519871e-16
10
-3.1871417666371498
20
0.098425196850393956
30
2.1854783949314103e-17
10
-3.1896948499026085
20
0.098425196850393956
30
2.1854783949314103e-17
10
-3.1925561803505511
20
0.097856269452858954
30
2.1854783949314103e-17
10
-3.1970478869821992
20
0.095996322896871905
30
2.1854783949314103e-17
10
-3.1994731991177803
20
0.09437643141710482
30
-1.5298348764519871e-16
10
-3.2029103587035559
20
0.090940381417821001
30
2.1854783949314103e-17
10
-3.2045306127163933
20
0.088516468449369723
30
2.1854783949314103e-17
10
-3.2063904221274231
20
0.084027880193411439
30
2.1854783949314103e-17
10
-3.2069592827187847
20
0.081169144806852236
30
2.1854783949314103e-17
10
-3.2069592827187847
20
0.078740157480314932
30
2.1854783949314103e-17
10
-3.2069592827187847
20
0.076311170153777641
30
2.1854783949314103e-17
10
-3.2063904221274231
20
0.073452434767218439
30
2.1854783949314103e-17
10
-3.2045306127163933
20
0.068963846511260182
30
2.1854783949314103e-17
10
-3.2029103587035559
20
0.066539933542808932
30
2.1854783949314103e-17
10
-3.1994731991177803
20
0.063103883543525127
30
-1.5298348764519871e-16
10
-3.1970478869821992
20
0.061483992063758069
30
2.1854783949314103e-17
10
-3.1925561803505511
20
0.059624045507770999
30
2.1854783949314103e-17
10
-3.1896948499026085
20
0.059055118110235921
30
2.1854783949314103e-17
10
-3.1848326038214907
20
0.059055118110235921
30
2.1854783949314103e-17
10
-3.1819712644998308
20
0.059624048314024576
30
-1.5298348764519871e-16
10
-3.1774795315318594
20
0.061483998040293031
30
1.9669305554382694e-16
10
-3.1750541972489557
20
0.063103894897990953
30
2.1854783949314103e-17
10
-3.1716170070241225
20
0.066539952231158522
30
1.9669305554382694e-16
10
-3.169996736273621
20
0.068963867026339637
30
1.9669305554382694e-16
10
-3.1681369131462493
20
0.073452451603006563
30
2.1854783949314103e-17
10
-3.167568048016518
20
0.076311177319278639
30
-1.5298348764519871e-16
10
-3.167568048016518
20
0.081169137641351266
30
-1.5298348764519871e-16
10
-3.1681369131462493
20
0.08402786335762337
30
2.1854783949314103e-17
10
-3.169996736273621
20
0.08851644793429031
30
1.9669305554382694e-16
10
-3.1716170070241225
20
0.090940362729471355
30
1.9669305554382694e-16
10
-3.1750541972489557
20
0.094376420062638952
30
2.1854783949314103e-17
10
-3.1774795315318594
20
0.095996316920336902
30
1.9669305554382694e-16
10
-3.1818585791775478
20
0.09780960558375322
30
1.9669305554382694e-16
10
-3.184547058367166
20
0.098367203999049566
30
2.1854783949314103e-17
10
-3.1868947035714545
20
0.098421741263591309
30
2.1854783949314103e-17
0
SPLINE
5
106
100
AcDbEntity
8
0
100
AcDbSpline
70
0
71
3
72
41
73
37
74
0
42
0.000000001
43
0.0000000001
44
0.0000000001
40
0.22129420422029666
40
0.22129420422029666
40
0.22129420422029666
40
0.22129420422029666
40
0.22220133051702745
40
0.22220133051702745
40
0.24072583534847874
40
0.24072583534847874
40
0.25924546599573012
40
0.25924546599573012
40
0.27775927853104754
40
0.27775927853104754
40
0.29626831134475057
40
0.29626831134475057
40
0.29626831134475057
40
0.3147773441584536
40
0.3147773441584536
40
0.33329115669377102
40
0.33329115669377102
40
0.35181078734102239
40
0.35181078734102239
40
0.37033529217247368
40
0.37033529217247368
40
0.38885985159567393
40
0.38885985159567393
40
0.40737960855820726
40
0.40737960855820726
40
0.42589348494926937
40
0.42589348494926937
40
0.44440246701712582
40
0.44440246701712582
40
0.4629114490849825
40
0.4629114490849825
40
0.48142532547604455
40
0.48142532547604455
40
0.49994508243857783
40
0.49994508243857783
40
0.51756251556504718
40
0.51756251556504718
40
0.51756251556504718
40
0.51756251556504718
10
-3.26568505246256
20
0.098421905804934776
30
2.1854783949314103e-17
10
-3.2658060557059372
20
0.098423832606879424
30
2.1854783949314103e-17
10
-3.2659261327388087
20
0.098425196850393956
30
2.1854783949314103e-17
10
-3.2684762155640299
20
0.098425196850393873
30
-3.2782175923971154e-16
10
-3.2713374476620736
20
0.097856278203157745
30
2.1854783949314103e-17
10
-3.275829023093217
20
0.095996358473929733
30
2.1854783949314103e-17
10
-3.2782542714032297
20
0.09437647876069101
30
2.1854783949314103e-17
10
-3.2816913613758287
20
0.090940445768610045
30
2.1854783949314103e-17
10
-3.2833115864762918
20
0.088516530188660736
30
2.1854783949314103e-17
10
-3.285171375714159
20
0.084027924888312108
30
2.1854783949314103e-17
10
-3.2857402307574826
20
0.08116916441124708
30
2.1854783949314103e-17
10
-3.2857402307574826
20
0.078740157480314932
30
2.1854783949314103e-17
10
-3.2857402307574826
20
0.076311150549382784
30
2.1854783949314103e-17
10
-3.285171375714159
20
0.073452390072317769
30
2.1854783949314103e-17
10
-3.2833115864762918
20
0.068963784771969142
30
2.1854783949314103e-17
10
-3.2816913613758287
20
0.066539869192019818
30
2.1854783949314103e-17
10
-3.2782542714032297
20
0.063103836199938868
30
2.1854783949314103e-17
10
-3.275829023093217
20
0.061483956486700131
30
2.1854783949314103e-17
10
-3.2713374476620736
20
0.059624036757472132
30
2.1854783949314103e-17
10
-3.2684762155640299
20
0.059055118110236005
30
-3.2782175923971154e-16
10
-3.2636141336408477
20
0.059055118110235831
30
-3.2782175923971154e-16
10
-3.2607528932959546
20
0.059624039365522546
30
2.1854783949314103e-17
10
-3.2562612933888757
20
0.061483962041217727
30
2.1854783949314103e-17
10
-3.2538360244959859
20
0.06310384675263514
30
2.1854783949314103e-17
10
-3.250398906048487
20
0.066539886560735298
30
1.9669305554382694e-16
10
-3.2487786653924924
20
0.068963803838522256
30
-1.5298348764519871e-16
10
-3.2469188634069739
20
0.073452405719336755
30
2.1854783949314103e-17
10
-3.2463500041457629
20
0.076311157208942701
30
-1.5298348764519871e-16
10
-3.2463500041457629
20
0.081169157751687204
30
-1.5298348764519871e-16
10
-3.2469188634069739
20
0.084027909241293178
30
2.1854783949314103e-17
10
-3.2487786653924924
20
0.088516511122107705
30
-1.5298348764519871e-16
10
-3.250398906048487
20
0.090940428399894677
30
1.9669305554382694e-16
10
-3.2538360244959859
20
0.094376468207994821
30
2.1854783949314103e-17
10
-3.2562612933888757
20
0.095996352919412137
30
2.1854783949314103e-17
10
-3.2606429048068253
20
0.097810730557875675
30
2.1854783949314103e-17
10
-3.2633353854613047
20
0.098368611971378112
30
3.7153132713833977e-16
10
-3.26568505246256
20
0.098421905804934776
30
2.1854783949314103e-17
0
SPLINE
5
107
100
AcDbEntity
8
0
100
AcDbSpline
70
0
71
3
72
41
73
37
74
0
42
0.000000001
43
0.0000000001
44
0.0000000001
40
0.22131275134063008
40
0.22131275134063008
40
0.22131275134063008
40
0.22131275134063008
40
0.22219867807649207
40
0.22219867807649207
40
0.24072260302441806
40
0.24072260302441806
40
0.25924188146725835
40
0.25924188146725835
40
0.27775561187019809
40
0.27775561187019809
40
0.29626478368433007
40
0.29626478368433007
40
0.29626478368433007
40
0.31477395549846199
40
0.31477395549846199
40
0.33328768590140179
40
0.33328768590140179
40
0.35180696434424202
40
0.35180696434424202
40
0.37033088929216801
40
0.37033088929216801
40
0.38885486506415223
40
0.38885486506415223
40
0.40737426110505753
40
0.40737426110505753
40
0.42588805095756715
40
0.42588805095756715
40
0.4443971755264951
40
0.4443971755264951
40
0.46290630009542288
40
0.46290630009542288
40
0.48142008994793251
40
0.48142008994793251
40
0.49993948598883797
40
0.49993948598883797
40
0.51757753502496018
40
0.51757753502496018
40
0.51757753502496018
40
0.51757753502496018
10
-3.3444730373203462
20
0.019681901387271706
30
2.1854783949314103e-17
10
-3.3445911704741809
20
0.019683738083307391
30
-3.2782175923971154e-16
10
-3.3447084177860691
20
0.019685039370079017
30
2.1854783949314103e-17
10
-3.3472556424164881
20
0.019685039370079017
30
2.1854783949314103e-17
10
-3.3501167830254097
20
0.019116128864495752
30
2.1854783949314103e-17
10
-3.3546082363969036
20
0.017256234091711998
30
-3.2782175923971154e-16
10
-3.3570334253205569
20
0.015636365327923708
30
2.1854783949314103e-17
10
-3.3604704505166354
20
0.01220034816154732
30
2.1854783949314103e-17
10
-3.3620906487102733
20
0.0097764301540005545
30
2.1854783949314103e-17
10
-3.3639504191726584
20
0.005287808996121756
30
2.1854783949314103e-17
10
-3.3645192690517196
20
0.0024290251724582604
30
2.1854783949314103e-17
10
-3.3645192690517196
20
8.2435964595604915e-32
30
2.1854783949314103e-17
10
-3.3645192690517196
20
-0.0024290251724582604
30
2.1854783949314103e-17
10
-3.3639504191726584
20
-0.005287808996121756
30
2.1854783949314103e-17
10
-3.3620906487102733
20
-0.0097764301540005545
30
2.1854783949314103e-17
10
-3.3604704505166354
20
-0.01220034816154732
30
2.1854783949314103e-17
10
-3.3570334253205569
20
-0.015636365327923708
30
2.1854783949314103e-17
10
-3.3546082363969036
20
-0.017256234091711998
30
-3.2782175923971154e-16
10
-3.3501167830254097
20
-0.019116128864495752
30
2.1854783949314103e-17
10
-3.3472556424164881
20
-0.019685039370079017
30
2.1854783949314103e-17
10
-3.3423937131881525
20
-0.019685039370079017
30
2.1854783949314103e-17
10
-3.3395325649015533
20
-0.019116126436409628
30
2.1854783949314103e-17
10
-3.3350410887432926
20
-0.017256228920389416
30
2.1854783949314103e-17
10
-3.3326158806572272
20
-0.015636355503240083
30
2.1854783949314103e-17
10
-3.3291788289512461
20
-0.012200331991069152
30
2.1854783949314103e-17
10
-3.3275586162754363
20
-0.009776412402731206
30
2.1854783949314103e-17
10
-3.3256988339449594
20
-0.0052877944285195794
30
2.1854783949314103e-17
10
-3.3251299801390113
20
-0.002429018972300257
30
2.1854783949314103e-17
10
-3.3251299801390113
20
0.0024290189723002306
30
2.1854783949314103e-17
10
-3.3256988339449594
20
0.0052877944285195126
30
2.1854783949314103e-17
10
-3.3275586162754363
20
0.0097764124027311227
30
2.1854783949314103e-17
10
-3.3291788289512461
20
0.01220033199106906
30
2.1854783949314103e-17
10
-3.3326158806572272
20
0.01563635550324001
30
2.1854783949314103e-17
10
-3.3350410887432926
20
0.017256228920389409
30
2.1854783949314103e-17
10
-3.3394251470662599
20
0.019071645255168124
30
3.7153132713833977e-16
10
-3.3421214459252719
20
0.019629795699265484
30
2.1854783949314103e-17
10
-3.3444730373203475
20
0.019681901387271713
30
2.1854783949314103e-17
0
LINE
5
108
100
AcDbEntity
8
0
100
AcDbLine
10
-3.5815625000000368
20
0.62435352527494103
30
2.1854783949314143e-17
11
-3.1815625000000369
21
0.62435352527509469
31
2.1854783949314143e-17
0
LINE
5
109
100
AcDbEntity
8
0
100
AcDbLine
10
-2.6684375000000036
20
0.72747455358538982
30
-2.4057348098847032e-16
11
-3.0684375000000035
21
0.72747455358543389
31
-2.4057348098847032e-16
0
LINE
5
110
100
AcDbEntity
8
0
100
AcDbLine
10
-2.6684374999999934
20
0.43284612059897098
30
3.7153132713833977e-16
11
-3.0684374999999933
21
0.4328461205989646
31
3.7153132713833977e-16
0
LINE
5
111
100
AcDbEntity
8
0
100
AcDbLine
10
-2.6684374999997718
20
0.095000000000061924
30
2.1854783949314103e-17
11
-3.0684374999999933
21
0.094999999999233087
31
2.1854783949314103e-17
0
LINE
5
112
100
AcDbEntity
8
0
100
AcDbLine
10
-3.5815624999999214
20
0.32435352527494105
30
2.1854783949314143e-17
11
-3.1815624999999215
21
0.32435352527509465
31
2.1854783949314143e-17
0
ENDSEC
0
SECTION
2
OBJECTS
0
DICTIONARY
5
C
100
AcDbDictionary
3
ACAD_GROUP
350
D
3
ACAD_MLINESTYLE
350
17
0
DICTIONARY
5
D
100
AcDbDictionary
0
DICTIONARY
5
1A
330
C
100
AcDbDictionary
0
DICTIONARY
5
17
100
AcDbDictionary
0
ENDSEC
0
EOF
