0
SECTION
2
HEADER
9
$INSUNITS
70
1
9
$ACADVER
1
AC1014
9
$HANDSEED
5
FFFF
0
ENDSEC
0
SECTION
2
TABLES
0
TABLE
2
VPORT
5
8
100
AcDbSymbolTable
0
ENDTAB
0
TABLE
2
LTYPE
5
5
100
AcDbSymbolTable
0
LTYPE
5
14
100
AcDbSymbolTableRecord
100
AcDbLinetypeTableRecord
2
BYBLOCK
70
0
0
LTYPE
5
15
100
AcDbSymbolTableRecord
100
AcDbLinetypeTableRecord
2
BYLAYER
70
0
0
ENDTAB
0
TABLE
2
LAYER
5
2
100
AcDbSymbolTable
70
2
0
LAYER
5
50
100
AcDbSymbolTableRecord
100
AcDbLayerTableRecord
2
0
70
0
6
CONTINUOUS
0
ENDTAB
0
TABLE
2
STYLE
5
3
100
AcDbSymbolTable
70
1
0
STYLE
5
11
100
AcDbSymbolTableRecord
100
AcDbTextStyleTableRecord
2
STANDARD
70
0
0
ENDTAB
0
TABLE
2
VIEW
5
6
100
AcDbSymbolTable
70
0
0
ENDTAB
0
TABLE
2
UCS
5
7
100
AcDbSymbolTable
70
0
0
ENDTAB
0
TABLE
2
APPID
5
9
100
AcDbSymbolTable
70
2
0
APPID
5
12
100
AcDbSymbolTableRecord
100
AcDbRegAppTableRecord
2
ACAD
70
0
0
ENDTAB
0
TABLE
2
DIMSTYLE
5
A
100
AcDbSymbolTable
70
1
0
ENDTAB
0
TABLE
2
BLOCK_RECORD
5
1
100
AcDbSymbolTable
70
1
0
BLOCK_RECORD
5
1F
100
AcDbSymbolTableRecord
100
AcDbBlockTableRecord
2
*MODEL_SPACE
0
BLOCK_RECORD
5
1B
100
AcDbSymbolTableRecord
100
AcDbBlockTableRecord
2
*PAPER_SPACE
0
ENDTAB
0
ENDSEC
0
SECTION
2
BLOCKS
0
BLOCK
5
20
100
AcDbEntity
100
AcDbBlockBegin
2
*MODEL_SPACE
0
ENDBLK
5
21
100
AcDbEntity
100
AcDbBlockEnd
0
BLOCK
5
1C
100
AcDbEntity
100
AcDbBlockBegin
2
*PAPER_SPACE
0
ENDBLK
5
1D
100
AcDbEntity
100
AcDbBlockEnd
0
ENDSEC
0
SECTION
2
ENTITIES
0
LWPOLYLINE
5
100
100
AcDbEntity
8
0
100
AcDbPolyline
90
42
70
1
43
0.0
10
-2.7053453947366171
20
0.27436078284786486
42
-0.56833912902943806
10
-2.6684374999997718
20
0.25237892571667142
10
-2.6684374999997718
20
0.094999999999999862
10
-2.7722563976375669
20
0.094999999999999807
42
2.4142135623730949
10
-2.7771776574800864
20
0.090078740157480047
10
-2.7771776574800868
20
-0.12500000000000033
10
-3.4728223425196383
20
-0.12500000000000031
10
-3.4728223425196383
20
0.090078740157480422
42
2.4142135623730976
10
-3.4777436023621573
20
0.094999999999999821
10
-3.581562499999952
20
0.094999999999998266
10
-3.5815624999999618
20
0.29230558717398269
42
-0.56833912902939321
10
-3.5446546052631218
20
0.31428744430518007
42
1.6790162230860928
10
-3.5446546052631129
20
0.47915137278915582
42
-0.56833912902933759
10
-3.5815624999999516
20
0.50113322992035347
10
-3.5815624999999471
20
0.59581774281102395
42
-0.56833912902933337
10
-3.5446546052631089
20
0.61779959994222045
42
1.6790162230854382
10
-3.5446546052630694
20
0.78266352842622622
42
-0.56833912902987826
10
-3.5815624999998961
20
0.80464538555748411
10
-3.5815624999997984
20
0.85000000000099019
42
-0.037442346356620672
10
-3.5764562803824722
20
0.91809216775290203
42
-0.61063912880301174
10
-3.53430155122838
20
0.93228134794376061
42
1.4475904522469238
10
-3.4644020059465652
20
1.0931136738583263
42
-0.61063912880313675
10
-3.4827878527948322
20
1.1336144721247303
42
-0.072325253848885454
10
-3.3871972292789239
20
1.2237672128004273
42
-0.61063912880291238
10
-3.3478414163681736
20
1.2030434579602145
42
1.4475904522461849
10
-3.1831952556644585
20
1.2634141897367206
42
-0.61063912880294335
10
-3.1665642205908009
20
1.3046666162947076
42
-0.072325253848844723
10
-3.0353537007967866
20
1.2976749461890771
42
-0.61063912880277404
10
-3.0232007396381322
20
1.2548887386027641
42
1.4475904522456859
10
-2.8659025205908457
20
1.1773629121043401
42
-0.61063912880284399
10
-2.8245672531726669
20
1.1937869704338371
42
-0.072325253848829096
10
-2.7390984664584535
20
1.09398631686345
42
-0.6106391288032692
10
-2.7616842217291233
20
1.0556687271245622
42
1.4475904522491199
10
-2.7092721555797898
20
0.88831891740964841
42
-0.61063912880368165
10
-2.6688640206829688
20
0.86973030103548477
42
-0.010807510332499076
10
-2.6684374999997722
20
0.84999999999999598
10
-2.6684374999997842
20
0.76471872410002428
42
-0.56833912902934458
10
-2.7053453947366268
20
0.74273686696883268
42
1.6790162230864423
10
-2.7053453947366153
20
0.57787293848487475
42
-0.5683391290294415
10
-2.6684374999997682
20
0.55589108135368059
10
-2.6684374999997686
20
0.46120656846301178
42
-0.5683391290294374
10
-2.7053453947366153
20
0.43922471133181851
42
1.6790162230865517
0
SPLINE
5
101
100
AcDbEntity
8
0
100
AcDbSpline
70
0
71
3
72
41
73
37
74
0
42
0.000000001
43
0.0000000001
44
0.0000000001
40
0.075021659865383838
40
0.075021659865383838
40
0.075021659865383838
40
0.075021659865383838
40
0.092594797400425727
40
0.092594797400425727
40
0.11111536063527047
40
0.11111536063527047
40
0.1296294304450322
40
0.1296294304450322
40
0.14813809418451473
40
0.14813809418451473
40
0.16664675792399727
40
0.16664675792399727
40
0.185160827733759
40
0.185160827733759
40
0.20368139096860374
40
0.20368139096860374
40
0.22220725380003326
40
0.22220725380003326
40
0.24073305330889971
40
0.24073305330889971
40
0.25925347002840643
40
0.25925347002840643
40
0.27776746577245642
40
0.27776746577245642
40
0.29627618836902947
40
0.29627618836902947
40
0.29627618836902947
40
0.31478491096560252
40
0.31478491096560252
40
0.33329890670965251
40
0.33329890670965251
40
0.35181932342915923
40
0.35181932342915923
40
0.37034512293802568
40
0.37034512293802568
40
0.37129784823441331
40
0.37129784823441331
40
0.37129784823441331
40
0.37129784823441331
10
-3.1081018108699436
20
0.019681406586073182
30
-3.0596697529039742e-16
10
-3.1057562924379845
20
0.019625566668231377
30
4.3709567898628207e-17
10
-3.1030720114958386
20
0.019068266331558469
30
-1.3112870369588462e-16
10
-3.0986956530649188
20
0.017256120664177626
30
-1.3112870369588462e-16
10
-3.0962702483362374
20
0.015636210720269758
30
-1.3112870369588462e-16
10
-3.092832980778454
20
0.01220013450607795
30
-1.3112870369588462e-16
10
-3.0912126776005602
20
0.0097762223830817514
30
-1.3112870369588462e-16
10
-3.0893528316906598
20
0.0052876564459056769
30
-1.3112870369588462e-16
10
-3.0887839602363218
20
0.0024289584959950846
30
4.3709567898628207e-17
10
-3.0887839602363218
20
-0.0024289584959950846
30
4.3709567898628207e-17
10
-3.0893528316906598
20
-0.0052876564459056769
30
-1.3112870369588462e-16
10
-3.0912126776005602
20
-0.0097762223830817514
30
-1.3112870369588462e-16
10
-3.092832980778454
20
-0.01220013450607795
30
-1.3112870369588462e-16
10
-3.0962702483362374
20
-0.015636210720269758
30
-1.3112870369588462e-16
10
-3.0986956530649188
20
-0.017256120664177626
30
-1.3112870369588462e-16
10
-3.1031875293644489
20
-0.019116099526305112
30
4.3709567898628207e-17
10
-3.1060489752926101
20
-0.019685039370078608
30
4.3709567898628207e-17
10
-3.1109113981719143
20
-0.019685039370078729
30
-1.3112870369588462e-16
10
-3.1137728345342874
20
-0.019116102551371257
30
-1.3112870369588462e-16
10
-3.118264682443622
20
-0.017256127106597581
30
-1.3112870369588462e-16
10
-3.1206900632978325
20
-0.015636222959845535
30
-1.3112870369588462e-16
10
-3.1241272978273522
20
-0.012200154651232508
30
4.3709567898628207e-17
10
-3.1257475829625365
20
-0.0097762444972422508
30
4.3709567898628207e-17
10
-3.1276074140866927
20
-0.0052876745940233678
30
4.3709567898628207e-17
10
-3.1281762806488627
20
-0.0024289662200227061
30
4.3709567898628207e-17
10
-3.1281762806488627
20
8.2435964595714994e-32
30
4.3709567898628207e-17
10
-3.1281762806488627
20
0.0024289662200227061
30
4.3709567898628207e-17
10
-3.1276074140866927
20
0.0052876745940233678
30
4.3709567898628207e-17
10
-3.1257475829625365
20
0.0097762444972422508
30
4.3709567898628207e-17
10
-3.1241272978273522
20
0.012200154651232508
30
4.3709567898628207e-17
10
-3.1206900632978325
20
0.015636222959845535
30
-1.3112870369588462e-16
10
-3.118264682443622
20
0.017256127106597581
30
-1.3112870369588462e-16
10
-3.1137728345342874
20
0.019116102551371257
30
-1.3112870369588462e-16
10
-3.1109113981719143
20
0.019685039370078729
30
-1.3112870369588462e-16
10
-3.1083551613208309
20
0.019685039370078667
30
-1.3112870369588462e-16
10
-3.108228993918738
20
0.019683534687633848
30
4.3709567898628207e-17
10
-3.1081018108699436
20
0.019681406586073182
30
-3.0596697529039742e-16
0
SPLINE
5
102
100
AcDbEntity
8
0
100
AcDbSpline
70
0
71
3
72
41
73
37
74
0
42
0.000000001
43
0.0000000001
44
0.0000000001
40
0.074997287862552497
40
0.074997287862552497
40
0.074997287862552497
40
0.074997287862552497
40
0.092593108517487407
40
0.092593108517487407
40
0.11111325360938981
40
0.11111325360938981
40
0.12962722309316849
40
0.12962722309316849
40
0.14813605192026469
40
0.14813605192026469
40
0.16664488074736089
40
0.16664488074736089
40
0.18515885023113959
40
0.18515885023113959
40
0.20367899532304198
40
0.20367899532304198
40
0.22220418226278121
40
0.22220418226278121
40
0.2407293104611575
40
0.2407293104611575
40
0.25924931963698333
40
0.25924931963698333
40
0.27776322041231521
40
0.27776322041231521
40
0.29627210384052943
40
0.29627210384052943
40
0.29627210384052943
40
0.31478098726874365
40
0.31478098726874365
40
0.33329488804407553
40
0.33329488804407553
40
0.35181489721990133
40
0.35181489721990133
40
0.3703400254182776
40
0.3703400254182776
40
0.37126939170308193
40
0.37126939170308193
40
0.37126939170308193
40
0.37126939170308193
10
-3.1868947035712956
20
0.019681583783273445
30
-1.3112870369588462e-16
10
-3.184547058367043
20
0.019627046518710171
30
-1.3112870369588462e-16
10
-3.1818585791774963
20
0.01906944810341886
30
-1.3112870369588462e-16
10
-3.1774795315318545
20
0.017256159440021714
30
4.3709567898628207e-17
10
-3.1750541972489503
20
0.015636262582324045
30
-1.3112870369588462e-16
10
-3.1716170070241176
20
0.012200205249156314
30
4.3709567898628207e-17
10
-3.1699967362736161
20
0.0097762904539751873
30
-1.3112870369588462e-16
10
-3.168136913146244
20
0.005287705877308228
30
-1.3112870369588462e-16
10
-3.1675680480165131
20
0.002428980161036248
30
4.3709567898628207e-17
10
-3.1675680480165131
20
-0.002428980161036248
30
4.3709567898628207e-17
10
-3.168136913146244
20
-0.005287705877308228
30
-1.3112870369588462e-16
10
-3.1699967362736161
20
-0.0097762904539751873
30
-1.3112870369588462e-16
10
-3.1716170070241176
20
-0.012200205249156314
30
4.3709567898628207e-17
10
-3.1750541972489503
20
-0.015636262582324045
30
-1.3112870369588462e-16
10
-3.1774795315318545
20
-0.017256159440021714
30
4.3709567898628207e-17
10
-3.1819712644998259
20
-0.019116109166290387
30
4.3709567898628207e-17
10
-3.1848326038214858
20
-0.019685039370079017
30
-1.3112870369588462e-16
10
-3.1896948499026037
20
-0.019685039370079017
30
-1.3112870369588462e-16
10
-3.1925561803505453
20
-0.019116111972543936
30
-1.3112870369588462e-16
10
-3.1970478869821943
20
-0.017256165416557036
30
-1.3112870369588462e-16
10
-3.1994731991177754
20
-0.015636273936789818
30
4.3709567898628207e-17
10
-3.202910358703551
20
-0.012200223937505993
30
4.3709567898628207e-17
10
-3.2045306127163879
20
-0.009776310969054753
30
-1.3112870369588462e-16
10
-3.2063904221274182
20
-0.0052877227130965036
30
-1.3112870369588462e-16
10
-3.2069592827187794
20
-0.0024289873265372994
30
-1.3112870369588462e-16
10
-3.2069592827187794
20
8.2435964595714863e-32
30
-1.3112870369588462e-16
10
-3.2069592827187794
20
0.0024289873265372994
30
-1.3112870369588462e-16
10
-3.2063904221274182
20
0.0052877227130965036
30
-1.3112870369588462e-16
10
-3.2045306127163879
20
0.009776310969054753
30
-1.3112870369588462e-16
10
-3.202910358703551
20
0.012200223937505993
30
4.3709567898628207e-17
10
-3.1994731991177754
20
0.015636273936789818
30
4.3709567898628207e-17
10
-3.1970478869821943
20
0.017256165416557036
30
-1.3112870369588462e-16
10
-3.1925561803505453
20
0.019116111972543936
30
-1.3112870369588462e-16
10
-3.1896948499026037
20
0.019685039370079017
30
-1.3112870369588462e-16
10
-3.1871417666370943
20
0.019685039370079017
30
-1.3112870369588462e-16
10
-3.1870187197992808
20
0.019683607486796442
30
-1.3112870369588462e-16
10
-3.1868947035712956
20
0.019681583783273445
30
-1.3112870369588462e-16
0
SPLINE
5
103
100
AcDbEntity
8
0
100
AcDbSpline
70
0
71
3
72
41
73
37
74
0
42
0.000000001
43
0.0000000001
44
0.0000000001
40
0.074974107124790357
40
0.074974107124790357
40
0.074974107124790357
40
0.074974107124790357
40
0.092591540250924489
40
0.092591540250924489
40
0.1111112972134578
40
0.1111112972134578
40
0.12962517360451872
40
0.12962517360451872
40
0.14813415567237526
40
0.14813415567237526
40
0.16664313774023179
40
0.16664313774023179
40
0.18515701413129271
40
0.18515701413129271
40
0.20367677109382604
40
0.20367677109382604
40
0.22220133051702631
40
0.22220133051702631
40
0.24072583534847761
40
0.24072583534847761
40
0.25924546599572895
40
0.25924546599572895
40
0.27775927853104754
40
0.27775927853104754
40
0.29626831134475051
40
0.29626831134475051
40
0.29626831134475051
40
0.31477734415845349
40
0.31477734415845349
40
0.33329115669377207
40
0.33329115669377207
40
0.35181078734102345
40
0.35181078734102345
40
0.37033529217247474
40
0.37033529217247474
40
0.37124241846954087
40
0.37124241846954087
40
0.37124241846954087
40
0.37124241846954087
10
-3.2656850524624201
20
0.019681748324617356
30
3.9338611108765388e-16
10
-3.2633353854611982
20
0.01962845449104187
30
3.9338611108765388e-16
10
-3.2606429048067791
20
0.019070573077543899
30
4.3709567898628207e-17
10
-3.2562612933888717
20
0.017256195439097038
30
-3.0596697529039742e-16
10
-3.253836024495981
20
0.015636310727679754
30
-1.3112870369588462e-16
10
-3.2503989060484821
20
0.012200270919579634
30
4.3709567898628207e-17
10
-3.2487786653924884
20
0.0097763536417923638
30
-1.3112870369588462e-16
10
-3.2469188634069699
20
0.0052877517609780022
30
-1.3112870369588462e-16
10
-3.246350004145758
20
0.0024290002713722478
30
4.3709567898628207e-17
10
-3.246350004145758
20
-0.0024290002713722478
30
4.3709567898628207e-17
10
-3.2469188634069699
20
-0.0052877517609780022
30
-1.3112870369588462e-16
10
-3.2487786653924884
20
-0.0097763536417923638
30
-1.3112870369588462e-16
10
-3.2503989060484821
20
-0.012200270919579634
30
4.3709567898628207e-17
10
-3.253836024495981
20
-0.015636310727679754
30
-1.3112870369588462e-16
10
-3.2562612933888717
20
-0.017256195439097038
30
-3.0596697529039742e-16
10
-3.2607528932959489
20
-0.019116118114792385
30
4.3709567898628207e-17
10
-3.2636141336408429
20
-0.019685039370079017
30
4.3709567898628207e-17
10
-3.268476215564025
20
-0.019685039370079017
30
4.3709567898628207e-17
10
-3.2713374476620682
20
-0.019116120722842887
30
-3.0596697529039742e-16
10
-3.2758290230932121
20
-0.017256200993614891
30
4.3709567898628207e-17
10
-3.2782542714032248
20
-0.015636321280376106
30
4.3709567898628207e-17
10
-3.2816913613758238
20
-0.012200288288295145
30
4.3709567898628207e-17
10
-3.2833115864762883
20
-0.0097763727083461146
30
4.3709567898628207e-17
10
-3.2851713757141545
20
-0.0052877674079973586
30
-3.0596697529039742e-16
10
-3.2857402307574768
20
-0.0024290069309321478
30
4.3709567898628207e-17
10
-3.2857402307574768
20
8.2435964595714994e-32
30
4.3709567898628207e-17
10
-3.2857402307574768
20
0.0024290069309321478
30
4.3709567898628207e-17
10
-3.2851713757141545
20
0.0052877674079973586
30
-3.0596697529039742e-16
10
-3.2833115864762883
20
0.0097763727083461146
30
4.3709567898628207e-17
10
-3.2816913613758238
20
0.012200288288295145
30
4.3709567898628207e-17
10
-3.2782542714032248
20
0.015636321280376106
30
4.3709567898628207e-17
10
-3.2758290230932121
20
0.017256200993614891
30
4.3709567898628207e-17
10
-3.2713374476620682
20
0.019116120722842887
30
-3.0596697529039742e-16
10
-3.268476215564025
20
0.019685039370079017
30
4.3709567898628207e-17
10
-3.2659261327387599
20
0.019685039370079017
30
-3.0596697529039742e-16
10
-3.2658060557058435
20
0.019683675126563473
30
-3.0596697529039742e-16
10
-3.2656850524624201
20
0.019681748324617356
30
3.9338611108765388e-16
0
SPLINE
5
104
100
AcDbEntity
8
0
100
AcDbSpline
70
0
71
3
72
41
73
37
74
0
42
0.000000001
43
0.0000000001
44
0.0000000001
40
0.074952032343697406
40
0.074952032343697406
40
0.074952032343697406
40
0.074952032343697406
40
0.092590081379823469
40
0.092590081379823469
40
0.11110947742073057
40
0.11110947742073057
40
0.12962326727323678
40
0.12962326727323678
40
0.14813239184216564
40
0.14813239184216564
40
0.16664151641109451
40
0.16664151641109451
40
0.18515530626360072
40
0.18515530626360072
40
0.20367470230450782
40
0.20367470230450782
40
0.22219867807649457
40
0.22219867807649457
40
0.24072260302441811
40
0.24072260302441811
40
0.25924188146725841
40
0.25924188146725841
40
0.27775561187019915
40
0.27775561187019915
40
0.29626478368433123
40
0.29626478368433123
40
0.29626478368433123
40
0.31477395549846332
40
0.31477395549846332
40
0.33328768590140412
40
0.33328768590140412
40
0.35180696434424441
40
0.35180696434424441
40
0.37033088929216795
40
0.37033088929216795
40
0.37121681602802864
40
0.37121681602802864
40
0.37121681602802864
40
0.37121681602802864
10
-3.3444730373203431
20
0.01968190138727173
30
4.3709567898628207e-17
10
-3.3421214459252684
20
0.019629795699265564
30
4.3709567898628207e-17
10
-3.3394251470662555
20
0.019071645255168055
30
4.3709567898628207e-17
10
-3.3350410887432869
20
0.017256228920388885
30
4.3709567898628207e-17
10
-3.332615880657221
20
0.015636355503240159
30
4.3709567898628207e-17
10
-3.3291788289512412
20
0.012200331991069208
30
4.3709567898628207e-17
10
-3.3275586162754331
20
0.0097764124027309631
30
4.3709567898628207e-17
10
-3.3256988339449562
20
0.0052877944285196488
30
4.3709567898628207e-17
10
-3.3251299801390068
20
0.0024290189723003746
30
4.3709567898628207e-17
10
-3.3251299801390068
20
-0.0024290189723003746
30
4.3709567898628207e-17
10
-3.3256988339449562
20
-0.0052877944285196488
30
4.3709567898628207e-17
10
-3.3275586162754331
20
-0.0097764124027309631
30
4.3709567898628207e-17
10
-3.3291788289512412
20
-0.012200331991069208
30
4.3709567898628207e-17
10
-3.332615880657221
20
-0.015636355503240159
30
4.3709567898628207e-17
10
-3.3350410887432869
20
-0.017256228920388885
30
4.3709567898628207e-17
10
-3.3395325649015484
20
-0.019116126436409499
30
4.3709567898628207e-17
10
-3.3423937131881485
20
-0.019685039370079017
30
4.3709567898628207e-17
10
-3.3472556424164832
20
-0.019685039370079017
30
4.3709567898628207e-17
10
-3.3501167830254044
20
-0.01911612886449561
30
-3.0596697529039742e-16
10
-3.3546082363968988
20
-0.017256234091712189
30
4.3709567898628207e-17
10
-3.357033425320552
20
-0.015636365327923746
30
4.3709567898628207e-17
10
-3.3604704505166314
20
-0.012200348161547366
30
4.3709567898628207e-17
10
-3.3620906487102684
20
-0.0097764301540009396
30
4.3709567898628207e-17
10
-3.3639504191726544
20
-0.005287808996121998
30
-3.0596697529039742e-16
10
-3.3645192690517147
20
-0.0024290251724582807
30
4.3709567898628207e-17
10
-3.3645192690517147
20
8.2435964595714994e-32
30
4.3709567898628207e-17
10
-3.3645192690517147
20
0.0024290251724582807
30
4.3709567898628207e-17
10
-3.3639504191726544
20
0.005287808996121998
30
-3.0596697529039742e-16
10
-3.3620906487102684
20
0.0097764301540009396
30
4.3709567898628207e-17
10
-3.3604704505166314
20
0.012200348161547366
30
4.3709567898628207e-17
10
-3.357033425320552
20
0.015636365327923746
30
4.3709567898628207e-17
10
-3.3546082363968988
20
0.017256234091712189
30
4.3709567898628207e-17
10
-3.3501167830254044
20
0.01911612886449561
30
-3.0596697529039742e-16
10
-3.3472556424164832
20
0.019685039370079017
30
4.3709567898628207e-17
10
-3.3447084177860655
20
0.019685039370079017
30
4.3709567898628207e-17
10
-3.3445911704741782
20
0.019683738083307398
30
-3.0596697529039742e-16
10
-3.3444730373203431
20
0.01968190138727173
30
4.3709567898628207e-17
0
SPLINE
5
105
100
AcDbEntity
8
0
100
AcDbSpline
70
0
71
3
72
41
73
37
74
0
42
0.000000001
43
0.0000000001
44
0.0000000001
40
0.2213127513409246
40
0.2213127513409246
40
0.2213127513409246
40
0.2213127513409246
40
0.22219867807649551
40
0.22219867807649551
40
0.24072260302441906
40
0.24072260302441906
40
0.25924188146725935
40
0.25924188146725935
40
0.27775561187020015
40
0.27775561187020015
40
0.29626478368433223
40
0.29626478368433223
40
0.29626478368433223
40
0.31477395549846432
40
0.31477395549846432
40
0.33328768590140512
40
0.33328768590140512
40
0.35180696434424541
40
0.35180696434424541
40
0.37033088929216895
40
0.37033088929216895
40
0.38885486506415567
40
0.38885486506415567
40
0.40737426110506292
40
0.40737426110506292
40
0.42588805095757043
40
0.42588805095757043
40
0.4443971755264986
40
0.4443971755264986
40
0.46290630009542588
40
0.46290630009542588
40
0.48142008994793573
40
0.48142008994793573
40
0.49993948598884108
40
0.49993948598884108
40
0.51757753502525683
40
0.51757753502525683
40
0.51757753502525683
40
0.51757753502525683
10
-3.3444730373204594
20
0.098422058867588758
30
4.3709567898628207e-17
10
-3.3445911704742541
20
0.098423895563623187
30
4.3709567898628207e-17
10
-3.3447084177861033
20
0.098425196850393956
30
4.3709567898628207e-17
10
-3.3472556424164832
20
0.098425196850393956
30
4.3709567898628207e-17
10
-3.3501167830254044
20
0.097856286344810542
30
-3.0596697529039742e-16
10
-3.3546082363968988
20
0.09599639157202712
30
4.3709567898628207e-17
10
-3.357033425320552
20
0.094376522808238689
30
4.3709567898628207e-17
10
-3.3604704505166314
20
0.090940505641862304
30
4.3709567898628207e-17
10
-3.3620906487102684
20
0.088516587634315885
30
4.3709567898628207e-17
10
-3.3639504191726544
20
0.084027966476436941
30
-3.0596697529039742e-16
10
-3.3645192690517147
20
0.081169182652773217
30
4.3709567898628207e-17
10
-3.3645192690517147
20
0.078740157480314932
30
4.3709567898628207e-17
10
-3.3645192690517147
20
0.076311132307856647
30
4.3709567898628207e-17
10
-3.3639504191726544
20
0.073452348484192936
30
-3.0596697529039742e-16
10
-3.3620906487102684
20
0.068963727326313992
30
4.3709567898628207e-17
10
-3.3604704505166314
20
0.066539809318767573
30
4.3709567898628207e-17
10
-3.357033425320552
20
0.063103792152391189
30
4.3709567898628207e-17
10
-3.3546082363968988
20
0.061483923388602743
30
4.3709567898628207e-17
10
-3.3501167830254044
20
0.059624028615819329
30
-3.0596697529039742e-16
10
-3.3472556424164832
20
0.059055118110235921
30
4.3709567898628207e-17
10
-3.3423937131881485
20
0.059055118110235921
30
4.3709567898628207e-17
10
-3.3395325649015484
20
0.059624031043905443
30
4.3709567898628207e-17
10
-3.3350410887432869
20
0.06148392855992605
30
4.3709567898628207e-17
10
-3.332615880657221
20
0.063103801977074853
30
4.3709567898628207e-17
10
-3.3291788289512412
20
0.066539825489245946
30
4.3709567898628207e-17
10
-3.3275586162754323
20
0.068963745077583891
30
-3.0596697529039742e-16
10
-3.3256988339449554
20
0.073452363051795297
30
4.3709567898628207e-17
10
-3.3251299801390068
20
0.076311138508014659
30
4.3709567898628207e-17
10
-3.3251299801390068
20
0.081169176452615108
30
4.3709567898628207e-17
10
-3.3256988339449554
20
0.084027951908834303
30
-3.0596697529039742e-16
10
-3.3275586162754323
20
0.088516569883045931
30
-3.0596697529039742e-16
10
-3.3291788289512416
20
0.090940489471383834
30
4.3709567898628207e-17
10
-3.3326158806572224
20
0.094376512983554914
30
4.3709567898628207e-17
10
-3.3350410887432869
20
0.095996386400704167
30
4.3709567898628207e-17
10
-3.339425147066291
20
0.097811802735497777
30
-3.0596697529039742e-16
10
-3.3421214459253572
20
0.098369953179598874
30
4.3709567898628207e-17
10
-3.3444730373204594
20
0.098422058867588758
30
4.3709567898628207e-17
0
LINE
5
106
100
AcDbEntity
8
0
100
AcDbLine
10
-3.5815624999999485
20
0.54847548636568866
30
4.3709567898628244e-17
11
-3.1815624999999486
21
0.54847548636566801
31
4.3709567898628244e-17
0
LINE
5
107
100
AcDbEntity
8
0
100
AcDbLine
10
-2.6684374999997686
20
0.50854882490834619
30
-1.3112870369588467e-16
11
-3.0684374999997686
21
0.50854882490834907
31
-1.3112870369588467e-16
0
LINE
5
108
100
AcDbEntity
8
0
100
AcDbLine
10
-2.668437499999778
20
0.80735936205001013
30
-1.3112870369588467e-16
11
-3.0684374999997783
21
0.80735936205006742
31
-1.3112870369588467e-16
0
LINE
5
109
100
AcDbEntity
8
0
100
AcDbLine
10
-3.581562499999964
20
0.2484754863656887
30
4.3709567898628244e-17
11
-3.1815624999999641
21
0.24847548636566799
31
4.3709567898628244e-17
0
LINE
5
110
100
AcDbEntity
8
0
100
AcDbLine
10
-2.6684374999997709
20
0.20854882490834617
30
-1.3112870369588467e-16
11
-3.0684374999997708
21
0.20854882490834914
31
-1.3112870369588467e-16
0
ENDSEC
0
SECTION
2
OBJECTS
0
DICTIONARY
5
C
100
AcDbDictionary
3
ACAD_GROUP
350
D
3
ACAD_MLINESTYLE
350
17
0
DICTIONARY
5
D
100
AcDbDictionary
0
DICTIONARY
5
1A
330
C
100
AcDbDictionary
0
DICTIONARY
5
17
100
AcDbDictionary
0
ENDSEC
0
EOF
