0
SECTION
2
HEADER
9
$INSUNITS
70
1
9
$ACADVER
1
AC1014
9
$HANDSEED
5
FFFF
0
ENDSEC
0
SECTION
2
TABLES
0
TABLE
2
VPORT
5
8
100
AcDbSymbolTable
0
ENDTAB
0
TABLE
2
LTYPE
5
5
100
AcDbSymbolTable
0
LTYPE
5
14
100
AcDbSymbolTableRecord
100
AcDbLinetypeTableRecord
2
BYBLOCK
70
0
0
LTYPE
5
15
100
AcDbSymbolTableRecord
100
AcDbLinetypeTableRecord
2
BYLAYER
70
0
0
ENDTAB
0
TABLE
2
LAYER
5
2
100
AcDbSymbolTable
70
2
0
LAYER
5
50
100
AcDbSymbolTableRecord
100
AcDbLayerTableRecord
2
0
70
0
6
CONTINUOUS
0
ENDTAB
0
TABLE
2
STYLE
5
3
100
AcDbSymbolTable
70
1
0
STYLE
5
11
100
AcDbSymbolTableRecord
100
AcDbTextStyleTableRecord
2
STANDARD
70
0
0
ENDTAB
0
TABLE
2
VIEW
5
6
100
AcDbSymbolTable
70
0
0
ENDTAB
0
TABLE
2
UCS
5
7
100
AcDbSymbolTable
70
0
0
ENDTAB
0
TABLE
2
APPID
5
9
100
AcDbSymbolTable
70
2
0
APPID
5
12
100
AcDbSymbolTableRecord
100
AcDbRegAppTableRecord
2
ACAD
70
0
0
ENDTAB
0
TABLE
2
DIMSTYLE
5
A
100
AcDbSymbolTable
70
1
0
ENDTAB
0
TABLE
2
BLOCK_RECORD
5
1
100
AcDbSymbolTable
70
1
0
BLOCK_RECORD
5
1F
100
AcDbSymbolTableRecord
100
AcDbBlockTableRecord
2
*MODEL_SPACE
0
BLOCK_RECORD
5
1B
100
AcDbSymbolTableRecord
100
AcDbBlockTableRecord
2
*PAPER_SPACE
0
ENDTAB
0
ENDSEC
0
SECTION
2
BLOCKS
0
BLOCK
5
20
100
AcDbEntity
100
AcDbBlockBegin
2
*MODEL_SPACE
0
ENDBLK
5
21
100
AcDbEntity
100
AcDbBlockEnd
0
BLOCK
5
1C
100
AcDbEntity
100
AcDbBlockBegin
2
*PAPER_SPACE
0
ENDBLK
5
1D
100
AcDbEntity
100
AcDbBlockEnd
0
ENDSEC
0
SECTION
2
ENTITIES
0
LWPOLYLINE
5
100
100
AcDbEntity
8
0
100
AcDbPolyline
90
42
70
1
43
0.0
10
-2.7053453947368205
20
0.31229980230247711
42
-0.56833912902912909
10
-2.6684374999999725
20
0.29031794517131054
10
-2.6684374999997718
20
0.095000000000030685
10
-2.7722563976375669
20
0.094999999999999793
42
2.4142135623730976
10
-2.7771776574800864
20
0.090078740157480047
10
-2.7771776574800864
20
-0.12500000000000025
10
-3.4728223425196383
20
-0.12500000000000022
10
-3.4728223425196383
20
0.090078740157480422
42
2.4142135623730976
10
-3.4777436023621573
20
0.094999999999999821
10
-3.5815624999999529
20
0.09499999999999123
10
-3.5815624999999991
20
0.25436656771937244
42
-0.56833912902950201
10
-3.5446546052631565
20
0.27634842485057504
42
1.6790162230862693
10
-3.5446546052631578
20
0.44121235333454129
42
-0.56833912902937711
10
-3.5815625000000009
20
0.46319421046573561
10
-3.5815625000000053
20
0.55787872335639033
42
-0.56833912902943162
10
-3.5446546052631618
20
0.57986058048758593
42
1.6790162230860148
10
-3.5446546052631303
20
0.74472450897156506
42
-0.56833912902972994
10
-3.581562499999964
20
0.76670636610279808
10
-3.5815624999998512
20
0.85000000000000209
42
-0.012132779529822441
10
-3.5810249944091757
20
0.87214770598109925
42
-0.61063912880342619
10
-3.5405189008799258
20
0.89052188382786246
42
1.447590452249091
10
-3.4872205577524955
20
1.0575915402874692
42
-0.61063912880359728
10
-3.5096028989771493
20
1.0960283042751993
42
-0.072325253848957216
10
-3.4236063340616467
20
1.1953745411353007
42
-0.61063912880293614
10
-3.3823587005998061
20
1.1787316219700581
42
1.4475904522482284
10
-3.2246517768032952
20
1.2554226232434484
42
-0.61063912880369042
10
-3.2122722043166578
20
1.298143814818516
42
-0.072325253848969498
10
-3.0810264693075409
20
1.304439924527784
42
-0.61063912880331328
10
-3.0646143203078164
20
1.2630999270706569
42
1.4475904522490608
10
-2.9002904586255243
20
1.2018573604075935
42
-0.61063912880356253
10
-2.860825355310987
20
1.2223722244070967
42
-0.072325253849004317
10
-2.7657139159805544
20
1.1317140859744605
42
-0.61063912880291216
10
-2.7843141731255634
20
1.0913113081159662
42
1.447590452244782
10
-2.7152680779598199
20
0.93011074908440394
42
-0.61063912880226801
10
-2.6731891486280985
20
0.91569833322732219
42
-0.036115459055933469
10
-2.6684374999999996
20
0.85000000000003917
10
-2.6684374999999951
20
0.80265774355467412
42
-0.56833912902943018
10
-2.7053453947368387
20
0.78067588642347674
42
1.6790162230863015
10
-2.7053453947368431
20
0.61581195793951127
42
-0.56833912902942529
10
-2.6684375000000018
20
0.59383010080831444
10
-2.6684375000000089
20
0.49914558791763036
42
-0.56833912902932593
10
-2.7053453947368493
20
0.47716373078643548
42
1.6790162230864405
0
SPLINE
5
101
100
AcDbEntity
8
0
100
AcDbSpline
70
0
71
3
72
41
73
37
74
0
42
0.000000001
43
0.0000000001
44
0.0000000001
40
0.22125452850364391
40
0.22125452850364391
40
0.22125452850364391
40
0.22125452850364391
40
0.222207253800034
40
0.222207253800034
40
0.2407330533089006
40
0.2407330533089006
40
0.25925347002840704
40
0.25925347002840704
40
0.27776746577245748
40
0.27776746577245748
40
0.29627618836903002
40
0.29627618836903002
40
0.29627618836903002
40
0.31478491096560257
40
0.31478491096560257
40
0.33329890670965301
40
0.33329890670965301
40
0.3518193234291595
40
0.3518193234291595
40
0.37034512293802607
40
0.37034512293802607
40
0.38887098576945689
40
0.38887098576945689
40
0.40739154900430008
40
0.40739154900430008
40
0.42590561881406386
40
0.42590561881406386
40
0.44441428255354504
40
0.44441428255354504
40
0.46292294629302627
40
0.46292294629302627
40
0.48143701610278999
40
0.48143701610278999
40
0.49995757933763318
40
0.49995757933763318
40
0.51753071687267393
40
0.51753071687267393
40
0.51753071687267393
40
0.51753071687267393
10
-3.108101810869949
20
0.019681406586073171
30
0
10
-3.1082289939187433
20
0.019683534687633848
30
0
10
-3.1083551613208367
20
0.019685039370078667
30
0
10
-3.1109113981719201
20
0.019685039370078667
30
0
10
-3.1137728345342932
20
0.019116102551371233
30
0
10
-3.1182646824436282
20
0.017256127106597449
30
0
10
-3.1206900632978387
20
0.015636222959845451
30
0
10
-3.124127297827358
20
0.012200154651232347
30
0
10
-3.1257475829625418
20
0.0097762444972421467
30
0
10
-3.1276074140866985
20
0.0052876745940232369
30
0
10
-3.128176280648868
20
0.0024289662200226423
30
0
10
-3.128176280648868
20
8.1147902648789046e-32
30
0
10
-3.128176280648868
20
-0.0024289662200226423
30
0
10
-3.1276074140866985
20
-0.0052876745940232369
30
0
10
-3.1257475829625418
20
-0.0097762444972421467
30
0
10
-3.124127297827358
20
-0.012200154651232347
30
0
10
-3.1206900632978387
20
-0.015636222959845451
30
0
10
-3.1182646824436282
20
-0.017256127106597449
30
0
10
-3.1137728345342932
20
-0.019116102551371233
30
0
10
-3.1109113981719201
20
-0.019685039370078667
30
0
10
-3.1060489752926159
20
-0.019685039370078667
30
0
10
-3.1031875293644542
20
-0.019116099526305171
30
0
10
-3.0986956530649241
20
-0.017256120664177709
30
0
10
-3.0962702483362432
20
-0.015636210720269546
30
0
10
-3.0928329807784594
20
-0.012200134506077659
30
0
10
-3.091212677600566
20
-0.0097762223830814097
30
0
10
-3.0893528316906655
20
-0.0052876564459051955
30
0
10
-3.0887839602363267
20
-0.0024289584959949107
30
0
10
-3.0887839602363267
20
0.0024289584959949107
30
0
10
-3.0893528316906655
20
0.0052876564459051955
30
0
10
-3.091212677600566
20
0.0097762223830814097
30
0
10
-3.0928329807784594
20
0.012200134506077659
30
0
10
-3.0962702483362432
20
0.015636210720269546
30
0
10
-3.0986956530649241
20
0.017256120664177709
30
0
10
-3.1030720114958439
20
0.019068266331558406
30
0
10
-3.1057562924379893
20
0.019625566668231283
30
0
10
-3.108101810869949
20
0.019681406586073171
30
0
0
SPLINE
5
102
100
AcDbEntity
8
0
100
AcDbSpline
70
0
71
3
72
41
73
37
74
0
42
0.000000001
43
0.0000000001
44
0.0000000001
40
0.22127481597797813
40
0.22127481597797813
40
0.22127481597797813
40
0.22127481597797813
40
0.22220418226278274
40
0.22220418226278274
40
0.24072931046115958
40
0.24072931046115958
40
0.25924931963698411
40
0.25924931963698411
40
0.27776322041231577
40
0.27776322041231577
40
0.29627210384053038
40
0.29627210384053038
40
0.29627210384053038
40
0.31478098726874498
40
0.31478098726874498
40
0.33329488804407664
40
0.33329488804407664
40
0.35181489721990117
40
0.35181489721990117
40
0.37034002541827804
40
0.37034002541827804
40
0.38886521235801819
40
0.38886521235801819
40
0.40738535744992177
40
0.40738535744992177
40
0.42589932693369836
40
0.42589932693369836
40
0.44440815576079556
40
0.44440815576079556
40
0.46291698458789277
40
0.46291698458789277
40
0.48143095407166936
40
0.48143095407166936
40
0.49995109916357294
40
0.49995109916357294
40
0.51754691981850853
40
0.51754691981850853
40
0.51754691981850853
40
0.51754691981850853
10
-3.1868947035713004
20
0.019681583783273438
30
0
10
-3.1870187197992856
20
0.019683607486796442
30
0
10
-3.1871417666370991
20
0.019685039370079017
30
0
10
-3.1896948499026094
20
0.019685039370079017
30
0
10
-3.1925561803505511
20
0.019116111972543971
30
0
10
-3.1970478869821997
20
0.017256165416557095
30
0
10
-3.1994731991177803
20
0.015636273936789759
30
0
10
-3.2029103587035559
20
0.012200223937506124
30
0
10
-3.2045306127163933
20
0.0097763109690548848
30
0
10
-3.2063904221274231
20
0.0052877227130966511
30
0
10
-3.2069592827187843
20
0.0024289873265373493
30
0
10
-3.2069592827187843
20
8.1147902648789035e-32
30
0
10
-3.2069592827187843
20
-0.0024289873265373493
30
0
10
-3.2063904221274231
20
-0.0052877227130966511
30
0
10
-3.2045306127163933
20
-0.0097763109690548848
30
0
10
-3.2029103587035559
20
-0.012200223937506124
30
0
10
-3.1994731991177803
20
-0.015636273936789759
30
0
10
-3.1970478869821997
20
-0.017256165416557095
30
0
10
-3.1925561803505511
20
-0.019116111972543971
30
0
10
-3.1896948499026094
20
-0.019685039370079017
30
0
10
-3.1848326038214916
20
-0.019685039370079017
30
0
10
-3.1819712644998308
20
-0.019116109166290342
30
0
10
-3.1774795315318594
20
-0.017256159440021575
30
0
10
-3.1750541972489552
20
-0.015636262582324176
30
0
10
-3.1716170070241225
20
-0.012200205249156488
30
0
10
-3.1699967362736214
20
-0.009776290453975281
30
0
10
-3.1681369131462493
20
-0.0052877058773084656
30
0
10
-3.167568048016518
20
-0.0024289801610363751
30
0
10
-3.167568048016518
20
0.0024289801610363751
30
0
10
-3.1681369131462493
20
0.0052877058773084656
30
0
10
-3.1699967362736214
20
0.009776290453975281
30
0
10
-3.1716170070241225
20
0.012200205249156488
30
0
10
-3.1750541972489552
20
0.015636262582324176
30
0
10
-3.1774795315318594
20
0.017256159440021575
30
0
10
-3.1818585791775011
20
0.019069448103418797
30
0
10
-3.1845470583670488
20
0.019627046518710146
30
0
10
-3.1868947035713
20
0.019681583783273424
30
0
0
SPLINE
5
103
100
AcDbEntity
8
0
100
AcDbSpline
70
0
71
3
72
41
73
37
74
0
42
0.000000001
43
0.0000000001
44
0.0000000001
40
0.22129420421996393
40
0.22129420421996393
40
0.22129420421996393
40
0.22129420421996393
40
0.22220133051702839
40
0.22220133051702839
40
0.24072583534847838
40
0.24072583534847838
40
0.25924546599573034
40
0.25924546599573034
40
0.27775927853104704
40
0.27775927853104704
40
0.29626831134475112
40
0.29626831134475112
40
0.29626831134475112
40
0.31477734415845521
40
0.31477734415845521
40
0.33329115669377196
40
0.33329115669377196
40
0.35181078734102389
40
0.35181078734102389
40
0.37033529217247391
40
0.37033529217247391
40
0.3888598515956756
40
0.3888598515956756
40
0.40737960855820937
40
0.40737960855820937
40
0.42589348494927026
40
0.42589348494927026
40
0.44440246701712671
40
0.44440246701712671
40
0.46291144908498316
40
0.46291144908498316
40
0.48142532547604405
40
0.48142532547604405
40
0.49994508243857783
40
0.49994508243857783
40
0.517562515564715
40
0.517562515564715
40
0.517562515564715
40
0.517562515564715
10
-3.2656850524624268
20
0.019681748324617363
30
0
10
-3.2658060557058488
20
0.019683675126563469
30
0
10
-3.2659261327387656
20
0.019685039370079014
30
0
10
-3.2684762155640299
20
0.019685039370079104
30
0
10
-3.2713374476620731
20
0.01911612072284289
30
0
10
-3.275829023093217
20
0.017256200993615137
30
0
10
-3.2782542714032297
20
0.015636321280376297
30
0
10
-3.2816913613758278
20
0.012200288288295537
30
0
10
-3.2833115864762918
20
0.0097763727083460331
30
0
10
-3.2851713757141581
20
0.0052877674079974245
30
0
10
-3.2857402307574817
20
0.0024290069309322957
30
0
10
-3.2857402307574817
20
8.1147902648789035e-32
30
0
10
-3.2857402307574817
20
-0.0024290069309322957
30
0
10
-3.2851713757141581
20
-0.0052877674079974245
30
0
10
-3.2833115864762918
20
-0.0097763727083460331
30
0
10
-3.2816913613758278
20
-0.012200288288295537
30
0
10
-3.2782542714032297
20
-0.015636321280376297
30
0
10
-3.275829023093217
20
-0.017256200993615137
30
0
10
-3.2713374476620731
20
-0.01911612072284289
30
0
10
-3.2684762155640299
20
-0.019685039370079104
30
0
10
-3.2636141336408477
20
-0.019685039370078931
30
0
10
-3.2607528932959537
20
-0.019116118114792285
30
0
10
-3.2562612933888757
20
-0.017256195439096664
30
0
10
-3.253836024495985
20
-0.015636310727679795
30
0
10
-3.2503989060484866
20
-0.012200270919579459
30
0
10
-3.2487786653924915
20
-0.0097763536417926535
30
0
10
-3.2469188634069739
20
-0.005287751760978252
30
0
10
-3.2463500041457629
20
-0.0024290002713722326
30
0
10
-3.2463500041457629
20
0.0024290002713722326
30
0
10
-3.2469188634069739
20
0.005287751760978252
30
0
10
-3.2487786653924915
20
0.0097763536417926535
30
0
10
-3.2503989060484866
20
0.012200270919579459
30
0
10
-3.253836024495985
20
0.015636310727679795
30
0
10
-3.2562612933888757
20
0.017256195439096664
30
0
10
-3.260642904806784
20
0.019070573077543881
30
0
10
-3.2633353854612031
20
0.019628454491041891
30
0
10
-3.2656850524624268
20
0.019681748324617363
30
0
0
SPLINE
5
104
100
AcDbEntity
8
0
100
AcDbSpline
70
0
71
3
72
41
73
37
74
0
42
0.000000001
43
0.0000000001
44
0.0000000001
40
0.22131275134063683
40
0.22131275134063683
40
0.22131275134063683
40
0.22131275134063683
40
0.22219867807649329
40
0.22219867807649329
40
0.24072260302441742
40
0.24072260302441742
40
0.25924188146725752
40
0.25924188146725752
40
0.27775561187019943
40
0.27775561187019943
40
0.29626478368433057
40
0.29626478368433057
40
0.29626478368433057
40
0.31477395549846171
40
0.31477395549846171
40
0.33328768590140356
40
0.33328768590140356
40
0.35180696434424363
40
0.35180696434424363
40
0.37033088929216779
40
0.37033088929216779
40
0.38885486506415456
40
0.38885486506415456
40
0.40737426110505875
40
0.40737426110505875
40
0.4258880509575686
40
0.4258880509575686
40
0.44439717552649582
40
0.44439717552649582
40
0.46290630009542311
40
0.46290630009542311
40
0.48142008994793295
40
0.48142008994793295
40
0.49993948598883714
40
0.49993948598883714
40
0.51757753502496739
40
0.51757753502496739
40
0.51757753502496739
40
0.51757753502496739
10
-3.3444730373203488
20
0.019681901387271751
30
0
10
-3.3445911704741831
20
0.019683738083307409
30
0
10
-3.3447084177860704
20
0.019685039370079017
30
0
10
-3.3472556424164881
20
0.019685039370079017
30
0
10
-3.3501167830254097
20
0.019116128864495638
30
0
10
-3.3546082363969036
20
0.017256234091712203
30
0
10
-3.3570334253205569
20
0.015636365327923656
30
0
10
-3.3604704505166363
20
0.012200348161547161
30
0
10
-3.3620906487102733
20
0.0097764301540005719
30
0
10
-3.3639504191726597
20
0.005287808996121573
30
0
10
-3.3645192690517205
20
0.0024290251724581519
30
0
10
-3.3645192690517205
20
8.1147902648789035e-32
30
0
10
-3.3645192690517205
20
-0.0024290251724581519
30
0
10
-3.3639504191726597
20
-0.005287808996121573
30
0
10
-3.3620906487102733
20
-0.0097764301540005719
30
0
10
-3.3604704505166363
20
-0.012200348161547161
30
0
10
-3.3570334253205569
20
-0.015636365327923656
30
0
10
-3.3546082363969036
20
-0.017256234091712203
30
0
10
-3.3501167830254097
20
-0.019116128864495638
30
0
10
-3.3472556424164881
20
-0.019685039370079017
30
0
10
-3.3423937131881534
20
-0.019685039370079017
30
0
10
-3.3395325649015533
20
-0.019116126436409722
30
0
10
-3.3350410887432917
20
-0.017256228920389156
30
0
10
-3.3326158806572272
20
-0.015636355503239857
30
0
10
-3.3291788289512465
20
-0.012200331991068901
30
0
10
-3.3275586162754371
20
-0.0097764124027309093
30
0
10
-3.3256988339449611
20
-0.0052877944285192871
30
0
10
-3.3251299801390117
20
-0.0024290189723001655
30
0
10
-3.3251299801390117
20
0.0024290189723001655
30
0
10
-3.3256988339449611
20
0.0052877944285192871
30
0
10
-3.3275586162754371
20
0.0097764124027309093
30
0
10
-3.3291788289512465
20
0.012200331991068901
30
0
10
-3.3326158806572272
20
0.015636355503239857
30
0
10
-3.3350410887432917
20
0.017256228920389156
30
0
10
-3.3394251470662613
20
0.019071645255168489
30
0
10
-3.3421214459252742
20
0.019629795699265849
30
0
10
-3.3444730373203488
20
0.019681901387271751
30
0
0
LINE
5
105
100
AcDbEntity
8
0
100
AcDbLine
10
-3.5815625000000031
20
0.51053646691106302
30
5.2798677989599699e-46
11
-3.1815625000000032
21
0.51053646691108068
31
5.2798677989599699e-46
0
LINE
5
106
100
AcDbEntity
8
0
100
AcDbLine
10
-3.5815624999999072
20
0.8083531830513998
30
-8.5992339179299834e-33
11
-3.1815624999999073
21
0.80835318305085568
31
-8.5992339179299834e-33
0
LINE
5
107
100
AcDbEntity
8
0
100
AcDbLine
10
-2.6684375000000053
20
0.54648784436297237
30
5.6622204702429033e-46
11
-3.0684375000000053
21
0.54648784436300335
31
5.6622204702429033e-46
0
LINE
5
108
100
AcDbEntity
8
0
100
AcDbLine
10
-2.6684375000000289
20
0.24648784436297239
30
5.6622204702429033e-46
11
-3.0684375000000288
21
0.24648784436300342
31
5.6622204702429033e-46
0
LINE
5
109
100
AcDbEntity
8
0
100
AcDbLine
10
-3.5815624999999898
20
0.21053646691106301
30
5.2798677989599699e-46
11
-3.1815624999999899
21
0.21053646691108074
31
5.2798677989599699e-46
0
ENDSEC
0
SECTION
2
OBJECTS
0
DICTIONARY
5
C
100
AcDbDictionary
3
ACAD_GROUP
350
D
3
ACAD_MLINESTYLE
350
17
0
DICTIONARY
5
D
100
AcDbDictionary
0
DICTIONARY
5
1A
330
C
100
AcDbDictionary
0
DICTIONARY
5
17
100
AcDbDictionary
0
ENDSEC
0
EOF
