0
SECTION
2
HEADER
9
$INSUNITS
70
1
9
$ACADVER
1
AC1014
9
$HANDSEED
5
FFFF
0
ENDSEC
0
SECTION
2
TABLES
0
TABLE
2
VPORT
5
8
100
AcDbSymbolTable
0
ENDTAB
0
TABLE
2
LTYPE
5
5
100
AcDbSymbolTable
0
LTYPE
5
14
100
AcDbSymbolTableRecord
100
AcDbLinetypeTableRecord
2
BYBLOCK
70
0
0
LTYPE
5
15
100
AcDbSymbolTableRecord
100
AcDbLinetypeTableRecord
2
BYLAYER
70
0
0
ENDTAB
0
TABLE
2
LAYER
5
2
100
AcDbSymbolTable
70
2
0
LAYER
5
50
100
AcDbSymbolTableRecord
100
AcDbLayerTableRecord
2
0
70
0
6
CONTINUOUS
0
ENDTAB
0
TABLE
2
STYLE
5
3
100
AcDbSymbolTable
70
1
0
STYLE
5
11
100
AcDbSymbolTableRecord
100
AcDbTextStyleTableRecord
2
STANDARD
70
0
0
ENDTAB
0
TABLE
2
VIEW
5
6
100
AcDbSymbolTable
70
0
0
ENDTAB
0
TABLE
2
UCS
5
7
100
AcDbSymbolTable
70
0
0
ENDTAB
0
TABLE
2
APPID
5
9
100
AcDbSymbolTable
70
2
0
APPID
5
12
100
AcDbSymbolTableRecord
100
AcDbRegAppTableRecord
2
ACAD
70
0
0
ENDTAB
0
TABLE
2
DIMSTYLE
5
A
100
AcDbSymbolTable
70
1
0
ENDTAB
0
TABLE
2
BLOCK_RECORD
5
1
100
AcDbSymbolTable
70
1
0
BLOCK_RECORD
5
1F
100
AcDbSymbolTableRecord
100
AcDbBlockTableRecord
2
*MODEL_SPACE
0
BLOCK_RECORD
5
1B
100
AcDbSymbolTableRecord
100
AcDbBlockTableRecord
2
*PAPER_SPACE
0
ENDTAB
0
ENDSEC
0
SECTION
2
BLOCKS
0
BLOCK
5
20
100
AcDbEntity
100
AcDbBlockBegin
2
*MODEL_SPACE
0
ENDBLK
5
21
100
AcDbEntity
100
AcDbBlockEnd
0
BLOCK
5
1C
100
AcDbEntity
100
AcDbBlockBegin
2
*PAPER_SPACE
0
ENDBLK
5
1D
100
AcDbEntity
100
AcDbBlockEnd
0
ENDSEC
0
SECTION
2
ENTITIES
0
LWPOLYLINE
5
100
100
AcDbEntity
8
0
100
AcDbPolyline
90
40
70
1
43
0.0
10
-2.705345394736586
20
0.35023882175708898
42
-0.56833912902924955
10
-2.6684374999997549
20
0.32825696462588561
10
-2.6684374999997718
20
0.094999999999997642
10
-2.7722563976375669
20
0.094999999999999835
42
2.4142135623730825
10
-2.7771776574800864
20
0.090078740157480089
10
-2.7771776574800868
20
-0.12500000000000031
10
-3.4728223425196383
20
-0.12500000000000025
10
-3.4728223425196383
20
0.090078740157480422
42
2.4142135623730825
10
-3.4777436023621573
20
0.094999999999999862
10
-3.5815624999999529
20
0.095000000000002929
10
-3.5815624999999409
20
0.21642754826482824
42
-0.56833912902988215
10
-3.5446546052630641
20
0.23840940539600203
42
1.6790162230891634
10
-3.5446546052630481
20
0.40327333387983483
42
-0.5683391290298716
10
-3.5815624999999192
20
0.42525519101101472
10
-3.5815624999999107
20
0.51993970390185884
42
-0.56833912902979944
10
-3.5446546052630388
20
0.54192156103303668
42
1.6790162230885877
10
-3.5446546052630228
20
0.70678548951689513
42
-0.568339129029795
10
-3.5815624999998872
20
0.72876734664807863
10
-3.5815624999998792
20
0.82767738602614338
42
-0.59473937791014975
10
-3.5429587985541566
20
0.84865211622644765
42
1.4522352179630085
10
-3.5063347571431649
20
1.0199464122947688
42
-0.61063912880335203
10
-3.532484693312568
20
1.05592605741365
42
-0.072325253848757445
10
-3.4569616555317602
20
1.1634497976750733
42
-0.61063912880228788
10
-3.4142440322718244
20
1.1510579177707221
42
1.4475904522432699
10
-3.2650891804670223
20
1.2432848860220715
42
-0.61063912880231941
10
-3.2570876738156342
20
1.2870379420964673
42
-0.072325253848661245
10
-3.1271489457412769
20
1.3065574426489941
42
-0.61063912880213522
10
-3.1066454524489409
20
1.2670864306610543
42
1.4475904522423744
10
-2.9369764532291618
20
1.2227534385048717
42
-0.61063912880215332
10
-2.8997851152154825
20
1.2471493070340554
42
-0.07232525384862297
10
-2.7960037076809283
20
1.1665608251924757
42
-0.61063912880237836
10
-2.8104282458361385
20
1.1244860498092297
42
1.4475904522435634
10
-2.7254542413472547
20
0.97108330520905417
42
-0.61063912880236038
10
-2.6821348498191422
20
0.96099448257329767
42
-0.066907910330650897
10
-2.6685446303375104
20
0.84011000946432146
42
-0.56087708530949221
10
-2.7054253401577673
20
0.81865816336951647
42
1.6780908693272329
10
-2.7053453947365678
20
0.65375097739410548
42
-0.56833912902932027
10
-2.6684374999997327
20
0.63176912026290544
10
-2.6684374999997384
20
0.5370846073722908
42
-0.56833912902924955
10
-2.7053453947365735
20
0.51510275024109298
42
1.6790162230854688
0
SPLINE
5
101
100
AcDbEntity
8
0
100
AcDbSpline
70
0
71
3
72
41
73
37
74
0
42
0.000000001
43
0.0000000001
44
0.0000000001
40
0.22127481597797341
40
0.22127481597797341
40
0.22127481597797341
40
0.22127481597797341
40
0.22220418226278144
40
0.22220418226278144
40
0.24072931046115775
40
0.24072931046115775
40
0.25924931963698244
40
0.25924931963698244
40
0.27776322041231505
40
0.27776322041231505
40
0.29627210384052866
40
0.29627210384052866
40
0.29627210384052866
40
0.31478098726874226
40
0.31478098726874226
40
0.33329488804407487
40
0.33329488804407487
40
0.35181489721989956
40
0.35181489721989956
40
0.37034002541827588
40
0.37034002541827588
40
0.38886521235801508
40
0.38886521235801508
40
0.40738535744991849
40
0.40738535744991849
40
0.42589932693369653
40
0.42589932693369653
40
0.44440815576079296
40
0.44440815576079296
40
0.46291698458788944
40
0.46291698458788944
40
0.48143095407166747
40
0.48143095407166747
40
0.49995109916357089
40
0.49995109916357089
40
0.51754691981850209
40
0.51754691981850209
40
0.51754691981850209
40
0.51754691981850209
10
-3.1868947035712938
20
0.019681583783273712
30
-3.0596697529039742e-16
10
-3.1870187197992803
20
0.019683607486796442
30
-1.3112870369588462e-16
10
-3.1871417666370943
20
0.019685039370079024
30
-1.3112870369588462e-16
10
-3.1896948499026045
20
0.019685039370078958
30
-1.3112870369588462e-16
10
-3.1925561803505462
20
0.019116111972543905
30
-1.3112870369588462e-16
10
-3.1970478869821948
20
0.017256165416556949
30
4.3709567898628207e-17
10
-3.1994731991177754
20
0.015636273936789711
30
4.3709567898628207e-17
10
-3.202910358703551
20
0.012200223937505927
30
4.3709567898628207e-17
10
-3.2045306127163879
20
0.0097763109690545084
30
-1.3112870369588462e-16
10
-3.2063904221274178
20
0.0052877227130962131
30
-1.3112870369588462e-16
10
-3.2069592827187798
20
0.0024289873265372201
30
4.3709567898628207e-17
10
-3.2069592827187798
20
8.2435964595714994e-32
30
4.3709567898628207e-17
10
-3.2069592827187798
20
-0.0024289873265372201
30
4.3709567898628207e-17
10
-3.2063904221274178
20
-0.0052877227130962131
30
-1.3112870369588462e-16
10
-3.2045306127163879
20
-0.0097763109690545084
30
-1.3112870369588462e-16
10
-3.202910358703551
20
-0.012200223937505927
30
4.3709567898628207e-17
10
-3.1994731991177754
20
-0.015636273936789711
30
4.3709567898628207e-17
10
-3.1970478869821948
20
-0.017256165416556949
30
4.3709567898628207e-17
10
-3.1925561803505462
20
-0.019116111972543905
30
-1.3112870369588462e-16
10
-3.1896948499026045
20
-0.019685039370078958
30
-1.3112870369588462e-16
10
-3.1848326038214867
20
-0.01968503937007908
30
-1.3112870369588462e-16
10
-3.1819712644998259
20
-0.019116109166290307
30
-1.3112870369588462e-16
10
-3.1774795315318545
20
-0.017256159440021741
30
4.3709567898628207e-17
10
-3.1750541972489503
20
-0.015636262582324142
30
-1.3112870369588462e-16
10
-3.1716170070241176
20
-0.012200205249156377
30
4.3709567898628207e-17
10
-3.1699967362736166
20
-0.0097762904539750971
30
4.3709567898628207e-17
10
-3.1681369131462445
20
-0.005287705877308208
30
4.3709567898628207e-17
10
-3.1675680480165131
20
-0.0024289801610362801
30
4.3709567898628207e-17
10
-3.1675680480165131
20
0.0024289801610362801
30
4.3709567898628207e-17
10
-3.1681369131462445
20
0.005287705877308208
30
4.3709567898628207e-17
10
-3.1699967362736166
20
0.0097762904539750971
30
4.3709567898628207e-17
10
-3.1716170070241176
20
0.012200205249156377
30
4.3709567898628207e-17
10
-3.1750541972489503
20
0.015636262582324142
30
-1.3112870369588462e-16
10
-3.1774795315318545
20
0.017256159440021741
30
4.3709567898628207e-17
10
-3.1818585791774963
20
0.019069448103418599
30
-1.3112870369588462e-16
10
-3.184547058367043
20
0.019627046518709983
30
4.3709567898628207e-17
10
-3.1868947035712951
20
0.019681583783273421
30
4.3709567898628207e-17
0
SPLINE
5
102
100
AcDbEntity
8
0
100
AcDbSpline
70
0
71
3
72
41
73
37
74
0
42
0.000000001
43
0.0000000001
44
0.0000000001
40
0.22129420421996149
40
0.22129420421996149
40
0.22129420421996149
40
0.22129420421996149
40
0.22220133051702945
40
0.22220133051702945
40
0.24072583534847958
40
0.24072583534847958
40
0.25924546599573195
40
0.25924546599573195
40
0.27775927853105004
40
0.27775927853105004
40
0.29626831134475301
40
0.29626831134475301
40
0.29626831134475301
40
0.31477734415845599
40
0.31477734415845599
40
0.33329115669377407
40
0.33329115669377407
40
0.35181078734102644
40
0.35181078734102644
40
0.37033529217247657
40
0.37033529217247657
40
0.38885985159567932
40
0.38885985159567932
40
0.40737960855821331
40
0.40737960855821331
40
0.42589348494927215
40
0.42589348494927215
40
0.44440246701712949
40
0.44440246701712949
40
0.46291144908498688
40
0.46291144908498688
40
0.48142532547604572
40
0.48142532547604572
40
0.49994508243857971
40
0.49994508243857971
40
0.51756251556471455
40
0.51756251556471455
40
0.51756251556471455
40
0.51756251556471455
10
-3.2656850524624201
20
0.019681748324617339
30
4.3709567898628207e-17
10
-3.2658060557058435
20
0.019683675126563469
30
-3.0596697529039742e-16
10
-3.2659261327387608
20
0.019685039370079017
30
4.3709567898628207e-17
10
-3.2684762155640259
20
0.019685039370079017
30
-3.0596697529039742e-16
10
-3.2713374476620682
20
0.019116120722842828
30
-3.0596697529039742e-16
10
-3.275829023093213
20
0.017256200993614842
30
-3.0596697529039742e-16
10
-3.2782542714032252
20
0.015636321280376248
30
4.3709567898628207e-17
10
-3.2816913613758243
20
0.012200288288295147
30
-3.0596697529039742e-16
10
-3.2833115864762883
20
0.0097763727083459671
30
4.3709567898628207e-17
10
-3.2851713757141545
20
0.0052877674079972641
30
-3.0596697529039742e-16
10
-3.2857402307574777
20
0.0024290069309321513
30
4.3709567898628207e-17
10
-3.2857402307574777
20
8.2435964595714994e-32
30
4.3709567898628207e-17
10
-3.2857402307574777
20
-0.0024290069309321513
30
4.3709567898628207e-17
10
-3.2851713757141545
20
-0.0052877674079972641
30
-3.0596697529039742e-16
10
-3.2833115864762883
20
-0.0097763727083459671
30
4.3709567898628207e-17
10
-3.2816913613758243
20
-0.012200288288295147
30
-3.0596697529039742e-16
10
-3.2782542714032252
20
-0.015636321280376248
30
4.3709567898628207e-17
10
-3.275829023093213
20
-0.017256200993614842
30
-3.0596697529039742e-16
10
-3.2713374476620682
20
-0.019116120722842828
30
-3.0596697529039742e-16
10
-3.2684762155640259
20
-0.019685039370079017
30
-3.0596697529039742e-16
10
-3.2636141336408429
20
-0.019685039370079017
30
4.3709567898628207e-17
10
-3.2607528932959489
20
-0.019116118114792257
30
4.3709567898628207e-17
10
-3.2562612933888708
20
-0.01725619543909673
30
4.3709567898628207e-17
10
-3.2538360244959801
20
-0.015636310727679858
30
4.3709567898628207e-17
10
-3.2503989060484817
20
-0.01220027091957978
30
-1.3112870369588462e-16
10
-3.2487786653924884
20
-0.0097763536417924488
30
-1.3112870369588462e-16
10
-3.2469188634069699
20
-0.0052877517609782659
30
-1.3112870369588462e-16
10
-3.246350004145758
20
-0.0024290002713723579
30
4.3709567898628207e-17
10
-3.246350004145758
20
0.0024290002713723579
30
4.3709567898628207e-17
10
-3.2469188634069699
20
0.0052877517609782659
30
-1.3112870369588462e-16
10
-3.2487786653924884
20
0.0097763536417924488
30
-1.3112870369588462e-16
10
-3.2503989060484817
20
0.01220027091957978
30
-1.3112870369588462e-16
10
-3.2538360244959801
20
0.015636310727679858
30
4.3709567898628207e-17
10
-3.2562612933888708
20
0.01725619543909673
30
4.3709567898628207e-17
10
-3.2606429048067782
20
0.01907057307754368
30
4.3709567898628207e-17
10
-3.2633353854611964
20
0.019628454491041745
30
-3.0596697529039742e-16
10
-3.2656850524624201
20
0.019681748324617332
30
3.9338611108765388e-16
0
SPLINE
5
103
100
AcDbEntity
8
0
100
AcDbSpline
70
0
71
3
72
41
73
37
74
0
42
0.000000001
43
0.0000000001
44
0.0000000001
40
0.22131275134063094
40
0.22131275134063094
40
0.22131275134063094
40
0.22131275134063094
40
0.22219867807649485
40
0.22219867807649485
40
0.24072260302441967
40
0.24072260302441967
40
0.25924188146725996
40
0.25924188146725996
40
0.2777556118702002
40
0.2777556118702002
40
0.29626478368433212
40
0.29626478368433212
40
0.29626478368433212
40
0.31477395549846404
40
0.31477395549846404
40
0.33328768590140428
40
0.33328768590140428
40
0.35180696434424458
40
0.35180696434424458
40
0.3703308892921694
40
0.3703308892921694
40
0.3888548650641549
40
0.3888548650641549
40
0.40737426110506214
40
0.40737426110506214
40
0.42588805095757021
40
0.42588805095757021
40
0.44439717552649816
40
0.44439717552649816
40
0.46290630009542616
40
0.46290630009542616
40
0.48142008994793423
40
0.48142008994793423
40
0.49993948598884141
40
0.49993948598884141
40
0.51757753502496306
40
0.51757753502496306
40
0.51757753502496306
40
0.51757753502496306
10
-3.3444730373203417
20
0.019681901387271706
30
-3.0596697529039742e-16
10
-3.3445911704741773
20
0.019683738083307385
30
4.3709567898628207e-17
10
-3.3447084177860655
20
0.019685039370079017
30
4.3709567898628207e-17
10
-3.3472556424164837
20
0.019685039370079017
30
4.3709567898628207e-17
10
-3.3501167830254048
20
0.019116128864495697
30
4.3709567898628207e-17
10
-3.3546082363968992
20
0.017256234091711998
30
4.3709567898628207e-17
10
-3.3570334253205529
20
0.015636365327923708
30
4.3709567898628207e-17
10
-3.3604704505166314
20
0.012200348161547275
30
4.3709567898628207e-17
10
-3.3620906487102693
20
0.0097764301540007124
30
4.3709567898628207e-17
10
-3.3639504191726544
20
0.0052878089961218384
30
-3.0596697529039742e-16
10
-3.3645192690517156
20
0.002429025172458256
30
4.3709567898628207e-17
10
-3.3645192690517156
20
8.2435964595714994e-32
30
4.3709567898628207e-17
10
-3.3645192690517156
20
-0.002429025172458256
30
4.3709567898628207e-17
10
-3.3639504191726544
20
-0.0052878089961218384
30
-3.0596697529039742e-16
10
-3.3620906487102693
20
-0.0097764301540007124
30
4.3709567898628207e-17
10
-3.3604704505166314
20
-0.012200348161547275
30
4.3709567898628207e-17
10
-3.3570334253205529
20
-0.015636365327923708
30
4.3709567898628207e-17
10
-3.3546082363968992
20
-0.017256234091711998
30
4.3709567898628207e-17
10
-3.3501167830254048
20
-0.019116128864495697
30
4.3709567898628207e-17
10
-3.3472556424164837
20
-0.019685039370079017
30
4.3709567898628207e-17
10
-3.3423937131881489
20
-0.019685039370079017
30
4.3709567898628207e-17
10
-3.3395325649015493
20
-0.01911612643640952
30
4.3709567898628207e-17
10
-3.3350410887432878
20
-0.017256228920388968
30
4.3709567898628207e-17
10
-3.3326158806572219
20
-0.015636355503240169
30
4.3709567898628207e-17
10
-3.3291788289512416
20
-0.012200331991069036
30
4.3709567898628207e-17
10
-3.3275586162754323
20
-0.0097764124027309371
30
4.3709567898628207e-17
10
-3.3256988339449554
20
-0.0052877944285194805
30
-3.0596697529039742e-16
10
-3.3251299801390068
20
-0.0024290189723002601
30
4.3709567898628207e-17
10
-3.3251299801390068
20
0.0024290189723002601
30
4.3709567898628207e-17
10
-3.3256988339449554
20
0.0052877944285194805
30
-3.0596697529039742e-16
10
-3.3275586162754323
20
0.0097764124027309371
30
4.3709567898628207e-17
10
-3.3291788289512416
20
0.012200331991069036
30
4.3709567898628207e-17
10
-3.3326158806572219
20
0.015636355503240169
30
4.3709567898628207e-17
10
-3.3350410887432878
20
0.017256228920388968
30
4.3709567898628207e-17
10
-3.3394251470662564
20
0.019071645255167916
30
-3.0596697529039742e-16
10
-3.3421214459252679
20
0.019629795699265356
30
3.9338611108765388e-16
10
-3.3444730373203417
20
0.019681901387271706
30
-3.0596697529039742e-16
0
LINE
5
104
100
AcDbEntity
8
0
100
AcDbLine
10
-3.5815624999999152
20
0.47259744745643684
30
-1.3112870369588457e-16
11
-3.556562499999941
21
0.47259744745643439
31
4.3709567898628207e-17
0
LINE
5
105
100
AcDbEntity
8
0
100
AcDbLine
10
-3.556562499999941
20
0.47259744745643439
30
4.3709567898628207e-17
11
-3.1565624999999411
21
0.47259744745639604
31
4.3709567898628207e-17
0
LINE
5
106
100
AcDbEntity
8
0
100
AcDbLine
10
-3.5815624999998827
20
0.77822236633711106
30
-1.3112870369588457e-16
11
-3.1815624999998828
21
0.77822236633707997
31
-1.3112870369588457e-16
0
LINE
5
107
100
AcDbEntity
8
0
100
AcDbLine
10
-3.4777436023621573
20
0.094999999999999862
30
4.3709567898628207e-17
11
-3.1565624999999411
21
0.094999999999969054
31
4.3709567898628207e-17
0
LINE
5
108
100
AcDbEntity
8
0
100
AcDbLine
10
-2.6684374999997353
20
0.58442686381759812
30
1.3112870369588457e-16
11
-3.0684374999997353
21
0.58442686381762321
31
1.3112870369588457e-16
0
LINE
5
109
100
AcDbEntity
8
0
100
AcDbLine
10
-2.6684374999997544
20
0.28442686381759807
30
1.3112870369588457e-16
11
-3.0684374999997543
21
0.28442686381762317
31
1.3112870369588457e-16
0
ENDSEC
0
SECTION
2
OBJECTS
0
DICTIONARY
5
C
100
AcDbDictionary
3
ACAD_GROUP
350
D
3
ACAD_MLINESTYLE
350
17
0
DICTIONARY
5
D
100
AcDbDictionary
0
DICTIONARY
5
1A
330
C
100
AcDbDictionary
0
DICTIONARY
5
17
100
AcDbDictionary
0
ENDSEC
0
EOF
